Oops, an error
Loading. Please wait.

Blank Tab

2,801 views 12 this week
1 commentread comment
1 2 3 4 5
excellent!
x 5
add to favorites
launch autoscroll
font size
0
reset
how to read this tab
guitar tuner
Autoscroll
slow
fast
+/-
esc
set tempo
stop
Help us to improve Ultimate-Guitar.com Take our survey!
×
Author
Difficulty
Tuning
intermediate
D# G# C# F# A# D#
Blank
By: FAILURE
Tuning: 1/2 Step Down (Eb Ab Db Gb Bb Db)

Intro/Verse:
d-----------0----------------4-----------------5---------------3-------|
b-----1-------1--------0-------0---------3-------3-----3-----5---5-----|
g-------0-------0--------0-------0---------0-------0-----0---------0---|
d---------2-------2--------1-------1---------4-------4-----4---------4-|
a---3----------------2----------------/5-------------------------------|
e----------------------------------------------------------------------|

slight variation:
d-----------0----------------4---------------5-------------3--------|
b-----1-------1--------0---------------3-------3-----5-------5------|
g-------0-------0--------0-----0---------0-------0-----0-------0----|
d---------2-------2--------1-----1---------4-------4-----4----------|
a---3----------------2--------------/5---------------------------5--|
e-------------------------------------------------------------------|

Chorus: The note above the appregiated chords represents bass.
    C              E              A          A#
d-------------------------------------0----------0----------|
b---1-------1------0-------0------1-----1----1-----1-----1--|
g-----0-------0------1-------1------0-----0----1-----1-1----|
d-------2-------2------0-------0----------------------------|
a---------3--------------2----------------------------------|
e-----------------------------------------------------------|

Interlude:
    C                    A#                        A
d-------8---------8----------6-----8\6-----x-x---------5---------5-----|
b---8-----8---8-----8----6-----6-------6---x-x-6\5-5-----5---5-----5---|
g-----0-----0---0-----0----0-----0-------0-----------0-----0---0-----0-|
d----------------------------------------------------------------------|
a----------------------------------------------------------------------|
e----------------------------------------------------------------------|

    G
d-------3---------3----|
b---3-------4p3-----3--|
g-----0---0-----0------|
d----------------------|
a----------------------|
e----------------------|

Solo: This is played over the interlude.
     C               A#              A               G
d---/10--------8-----10-12-10-12-10--10--------8-----7-8-7-8-7-------10-|
b-------8----8---8----------------------8----8---8-------------8---8----|
g----------9-------9-----------------------9-------9-------------9------|
d-----------------------------------------------------------------------|
a-----------------------------------------------------------------------|
e-----------------------------------------------------------------------|

"...and I need you to know..."
d------------5-------5---------8-------|
b------3-------3-------3----/6---6-6\--|
g--------0-------0-------0-------------|
d----------4-------4-------------------|
a---/5---------------------------------|
e--------------------------------------|

Outro: (2x)
d---10--------------------------------10--------------------------------|
b------8----8---8----------------7-8-----8----8---8----7-8-7-8-10-8-7---|
g---------9---9---9--7-9-7-9-7-9------------9---9---9-----------------9-|
d-----------------------------------------------------------------------|
a-----------------------------------------------------------------------|
e-----------------------------------------------------------------------|

then:
d----------7--------5----7------|
b---7--------7----7--------7----|
g-----9-7------7------7------7--|
d-------------------------------|
a-------------------------------|
e-------------------------------|
Suggest correction
What's this?
You can suggest a correction to this tab. Community and Mods will review your correction and vote to approve or reject it.
comments
print report bad tab
1 comment total.
0 reply
benlands3 162 wrote on December 28 2015, 11:36 am

this sounds really good

guest
You may want to rate the tab now too:
select rating
Please do not post tabs as comments. Select "correction" instead!