Oops, an error
Loading. Please wait.

Leo Bass Tab

34 views 3 this week
no commentswrite comment
1 2 3 4 5
3 more votes to show rating
add to favorites
launch autoscroll
font size
0
reset
guitar tuner
Autoscroll
slow
fast
+/-
esc
set tempo
stop
Help us to improve Ultimate-Guitar.com Take our survey!
×
Author
Difficulty
Tuning
novice
D# G# C# F# A# D#
About this tab version
Complete Bass Tab for "Leo". Was this info helpful? Yes No
Band: Failure
Album: Fantastic Planet
Song: Leo
Tab: Bass
Tabbed by: muberal

Tempo: 132bpm
4/4

Tuning doesn't really matter except for the one string used in this song.

[Verse 1]
Guitar intro. Three empty measures.

Gb|----------------------------|
Db|----------------------------|
Ab|----------------------------|
Eb|--8--8-----4-----6--6-------|


Gb|----------------------------|----------------------------|
Db|----------------------------|----------------------------|
Ab|----------------------------|----------------------------|
Eb|--3--3--3--3--3--3--3--3/---|--6--6--6--6--6--6--6--6\---|


Gb|----------------------------|----------------------------|
Db|----------------------------|----------------------------|
Ab|----------------------------|----------------------------|
Eb|--1--1--1--1--1--1--1--1/---|--8--8-----4-----6--6\------|


Gb|----------------------------|----------------------------|
Db|----------------------------|----------------------------|
Ab|----------------------------|----------------------------|
Eb|--3--3--3--3--3--3--3--3/---|--6--6--6--6--6--6--6--6\---|


Gb|----------------------------|----------------------------|
Db|----------------------------|----------------------------|
Ab|----------------------------|----------------------------|
Eb|--1--1--1--1--1--1--1--1/---|--8--8--8--8--8--8--8--8\---|


Gb|----------------------------|----------------------------|
Db|----------------------------|----------------------------|
Ab|----------------------------|----------------------------|
Eb|--3--3--3--3--3--3--3--3/---|--6--6--6--6--6--6--6--6\---|


Gb|----------------------------|----------------------------|
Db|----------------------------|----------------------------|
Ab|----------------------------|----------------------------|
Eb|--1--1--1--1--1--1--1--1/---|--8--8-----4-----6--6\------|


[Pre-Chorus 1]

Gb|----------------------------|----------------------------|
Db|----------------------------|----------------------------|
Ab|----------------------------|----------------------------|
Eb|--0-----0-----1--1-----3----|-----3--3--3--3--3--3--3----|


Gb|----------------------------|----------------------------|
Db|----------------------------|----------------------------|
Ab|----------------------------|----------------------------|
Eb|--0-----0-----1--1-----5----|--5--5--5--5--5--5--5--5\---|


Gb|----------------------------|----------------------------|----------------------------|
Db|----------------------------|----------------------------|----------------------------|
Ab|----------------------------|----------------------------|----------------------------|
Eb|--3--3--3--3--3--3--3--3----|--1--1--1--1--1--1--1--1----|--1--1--1--1--1--1--1--1----|


[Chorus 1]

Gb|----------------------------|----------------------------|
Db|----------------------------|----------------------------|
Ab|----------------------------|----------------------------|
Eb|--1-----1/----8--8-----5----|-----5--5\----3-----3-------| x3


Gb|----------------------------|----------------------------|----------------------------|
Db|----------------------------|----------------------------|----------------------------|
Ab|----------------------------|----------------------------|----------------------------|
Eb|--1-----1/----8--8-----5----|--5--5--5--5--5--5--5--5----|--3--3--3--3--3--3--3-------|


[Verse 2]
Guitar lick. Three empty measures.

Gb|----------------------------|
Db|----------------------------|
Ab|----------------------------|
Eb|--8--8-----4-----6--6-------|


Gb|----------------------------|----------------------------|
Db|----------------------------|----------------------------|
Ab|----------------------------|----------------------------|
Eb|--3--3--3--3--3--3--3--3/---|--6--6--6--6--6--6--6--6\---|


Gb|----------------------------|----------------------------|
Db|----------------------------|----------------------------|
Ab|----------------------------|----------------------------|
Eb|--1--1--1--1--1--1--1--1/---|--8--8-----4-----6--6\------|


Gb|----------------------------|----------------------------|
Db|----------------------------|----------------------------|
Ab|----------------------------|----------------------------|
Eb|--3--3--3--3--3--3--3--3/---|--6--6--6--6--6--6--6--6\---|


Gb|----------------------------|----------------------------|
Db|----------------------------|----------------------------|
Ab|----------------------------|----------------------------|
Eb|--1--1--1--1--1--1--1--1/---|--8--8--8--8--8--8--8--8\---|


Gb|----------------------------|----------------------------|
Db|----------------------------|----------------------------|
Ab|----------------------------|----------------------------|
Eb|--3--3--3--3--3--3--3--3/---|--6--6--6--6--6--6--6--6\---|


Gb|----------------------------|----------------------------|
Db|----------------------------|----------------------------|
Ab|----------------------------|----------------------------|
Eb|--1--1--1--1--1--1--1--1/---|--8--8-----4-----6--6\------|


[Pre-Chorus 2]

Gb|----------------------------|----------------------------|
Db|----------------------------|----------------------------|
Ab|----------------------------|----------------------------|
Eb|--0-----0-----1--1-----3----|-----3--3--3--3--3--3--3----|


Gb|----------------------------|----------------------------|
Db|----------------------------|----------------------------|
Ab|----------------------------|----------------------------|
Eb|--0-----0-----1--1-----5----|--5--5--5--5--5--5--5--5\---|


Gb|----------------------------|----------------------------|----------------------------|
Db|----------------------------|----------------------------|----------------------------|
Ab|----------------------------|----------------------------|----------------------------|
Eb|--3--3--3--3--3--3--3--3----|--1--1--1--1--1--1--1--1----|--1--1--1--1--1--1--1--1----|


[Chorus 2]

Gb|----------------------------|----------------------------|
Db|----------------------------|----------------------------|
Ab|----------------------------|----------------------------|
Eb|--1-----1/----8--8-----5----|-----5--5\----3-----3-------| x3


Gb|----------------------------|----------------------------|----------------------------|
Db|----------------------------|----------------------------|----------------------------|
Ab|----------------------------|----------------------------|----------------------------|
Eb|--1-----1/----8--8-----5----|--5--5--5--5--5--5--5--5----|--3--3--3--3--3--3--3-------|


Gb|----------------------------|----------------------------|
Db|----------------------------|----------------------------|
Ab|----------------------------|----------------------------|
Eb|--1--1--1--1--1--1--1--1----|--1--1--1--1--1--1--1--1----|


[Bridge]

Gb|----------------------------|----------------------------|
Db|----------------------------|----------------------------|
Ab|----------------------------|----------------------------|
Eb|--2--2--2--2--2--2--2--2----|--2--2--2--2--2--2--2--2/---|


Gb|----------------------------|----------------------------|
Db|----------------------------|----------------------------|
Ab|----------------------------|----------------------------|
Eb|--7--7--7--7--7--7--7--7----|--7--7--7--7--7--7--7--7\---|


Gb|----------------------------|----------------------------|
Db|----------------------------|----------------------------|
Ab|----------------------------|----------------------------|
Eb|--5--5--5--5--5--5--5--5----|--5--5--5--5--5--5--5--5\---|


Gb|----------------------------|----------------------------|
Db|----------------------------|----------------------------|
Ab|----------------------------|----------------------------|
Eb|--3--3--3--3--3--3--3--3----|--3--3--3--3--3--3--3--3----|

Gb|----------------------------|----------------------------|
Db|----------------------------|----------------------------|
Ab|----------------------------|----------------------------|
Eb|--2--2--2--2--2--2--2--2----|--2--2--2--2--2--2--2--2/---|


Gb|----------------------------|----------------------------|
Db|----------------------------|----------------------------|
Ab|----------------------------|----------------------------|
Eb|--7--7--7--7--7--7--7--7----|--7--7--7--7--7--7--7--7\---|


Gb|----------------------------|----------------------------|
Db|----------------------------|----------------------------|
Ab|----------------------------|----------------------------|
Eb|--5--5--5--5--5--5--5--5----|--5--5--5--5--5--5--5--5\---|


Gb|----------------------------|----------------------------|
Db|----------------------------|----------------------------|
Ab|----------------------------|----------------------------|
Eb|--3--3--3--3--3--3--3--3----|--3--3--3--3--3--3--3--3----|


[Chorus 3]


Gb|----------------------------|----------------------------|
Db|----------------------------|----------------------------|
Ab|----------------------------|----------------------------|
Eb|--1-----1/----8--8-----5----|-----5--5\----3-----3-------| x7


Gb|----------------------------|
Db|----------------------------|
Ab|----------------------------|
Eb|--1-----1/----8--8-----5----|

Fin.

***********************************

| /   Slide up 
| \   Slide down

***********************************
Suggest correction
Give kudos to tab author, rate the tab!
1 2 3 4 5
comments
print report bad tab
guest
You may want to rate the tab now too:
select rating
Wanna post a correction for this tab? Suggest correction