Oops, an error
Loading. Please wait.

Pitiful tab

by Failure
373 views 1 this week
2 commentsread comments
1 2 3 4 5
2 more votes to show rating
add to favorites
×
Save as Personal and add changes to this tab that will be seen only by you. Learn more ›
×
You can save this tab as Personal to edit and correct it or add notes. All changes will be seen only by you. Learn more »
launch autoscroll
font size
0
reset
how to read this tab
guitar tuner
edit
Autoscroll
slow
fast
+/-
esc
set tempo
stop
-------------------------------------------------------------------------------
                             Pitiful - Failure
-------------------------------------------------------------------------------
Tabbed by: benlands3
E-mail: benlands3@gmail.com

Tuning: half a step down

A pretty underrated Failure song in my opinion.

repeat 4 times for the intro (this also the chorus)
e|---------------------------------------------------------------------------|
B|---------------------------------------------------------------------------|
G|---7-7-7-7--9-9-9-9--5-5-5-5--10-10-10-10----------------------------------|
D|---7-7-7-7--9-9-9-9--5-5-5-5--10-10-10-10----------------------------------|
A|---7-7-7-7--9-9-9-9--5-5-5-5--10-10-10-10----------------------------------|
E|---5-5-5-5--7-7-7-7--3-3-3-3---8--8--8--8----------------------------------|

verse
palm muted
repeat
e|-------------------------------------------------------------------------------|
B|-------------------------------------------------------------------------------|
G|---5-5-5-5-5-5-5-5--4-4-4-4-4-4-4-4--7-7-7-7-7-7-7-7---9--9--9--9--9--9--9--9--|
D|---7-7-7-7-7-7-7-7--5-5-5-5-5-5-5-5--9-9-9-9-9-9-9-9--10-10-10-10-10-10-10-10--|
A|-------------------------------------------------------------------------------|
E|-------------------------------------------------------------------------------|

and that is basically it.
************************************

| /   slide up
| \   slide down
| h   hammer-on
| p   pull-off
| ~   vibrato
| +   harmonic
| x   Mute note
| b   Bend
| pb  Pre-bend
| br  Bend release
| pbr Pre-bend release
| brb Bend release bend

************************************

            
            
Suggest correction
Creating personal tab
Creating personal tab
You can edit any tab online and save it as your Personal.

You can edit, replace or remove any tab part or add personal notes – all changes will be seen only by you.

Personal tabs can be accessed anytime from any device, even offline.
Learn more »
Give kudos to tab author, rate the tab!
1 2 3 4 5
comments
print report bad tab
2 comments total.
0 reply
BlueMatador 3,973 Apr 16, 2016 08:02 PM

Love this song. Definitely an underrated one by Failure.

To my ear, and from what I can see in videos of the band playing live, the chords are sus4 chords:

eb|--------------------------------------------|
Bb|--------------------------------------------|
Gb|---7-7-7-7--9-9-9-9--5-5-5-5--10-10-10-10---|
Db|---7-7-7-7--9-9-9-9--5-5-5-5--10-10-10-10---|
Ab|---7-7-7-7--9-9-9-9--5-5-5-5--10-10-10-10---|
Eb|---5-5-5-5--7-7-7-7--3-3-3-3---8--8--8--8---|

As for the verse, it's spot on. Troys seems to be playing the last diad on the G and B strings, but it's the same notes. Well done.

0 reply
benlands3 163 Apr 21, 2016 03:18 PM

Hey thanks for the correction. that actually sounds a lot better. Ill change that right now

guest
You may want to rate the tab now too:
select rating
Wanna post a correction for this tab? Suggest correction