Oops, an error
Loading. Please wait.

Saturday Savior Tab

version 1
version 1

Whole song

5,463 views 1 this week
4 commentsread comments
1 2 3 4 5
x 9
add to favorites
launch autoscroll
font size
0
reset
how to read this tab
guitar tuner
Autoscroll
slow
fast
+/-
esc
set tempo
stop
Help us to improve Ultimate-Guitar.com Take our survey!
×
Author
Difficulty
novice
Gtr 1
w/light dist. (listen to the song to get the strumming right)
Intro Chords

e------------------------------------------------------------------|
b------------------------------------------------------------------|
g------------------------------------------------------------------|
d---9-----7-----12-----10------------------------------------------|
a---9-----7-----12-----10------------------------------------------|
D---7-----5-----10-----8-------------------------------------------|

Gtr 2 (fill 1)
w/ light dist.
e------------------------------------------------------------------|
b----------------------15--13------15--13--13----------------------|
g---9--11--12--14--12----------14--------------14--12--------------|
d------------------------------------------------------------------|
a------------------------------------------------------------------|
D------------------------------------------------------------------|

The chorus is the same as the intro except with more distortion, and the little fill 
the second chorus is the first couple notes of fill 1. Easy song by a great band.
Suggest correction
comments
print report bad tab
4 comments total. Showing first comments.
0 reply
nickdohle 100 Feb 14, 2009 07:55 PM

Sounds great.solid tab

0 reply
TurdBucket 16 May 31, 2010 03:42 PM

It sounds off. I think this is tabbed a fret too high.

+3 reply
davisdelo 10 Feb 08, 2011 11:43 PM

This is totally wrong. It should be:


Eb-----------------------------------------------------|
Bb-----------------------------------------------------|
Gb-----------------------------------------------------|
Db-----------------------------------------------------|
Ab---9-----7-----12-----10----------------------------|
Eb---10-----8-----13-----11-----------------------------|

Fill Mode:
Eb----------------10--8--------8------8-----------------|
Bb-----7/8--10--8----------10-----10----10--8-----------|
Gb--/7--------------------------------------------------|
Db-----------------------------------------------|
Ab-----------------------------------------------|
Eb-----------------------------------------------|

guest
You may want to rate the tab now too:
select rating
Wanna post a correction for this tab? Suggest correction