Oops, an error
Loading. Please wait.

Wonderful Life Tab

version 1
version 1

Whole song

2,646 views 1 this week
1 commentread comment
1 2 3 4 5
please rate
add to favorites
launch autoscroll
font size
0
reset
how to read this tab
guitar tuner
Autoscroll
slow
fast
+/-
esc
set tempo
stop
Help us to improve Ultimate-Guitar.com Take our survey!
×
Author
----------------------------------------------------------------------------
                             wonderful life - Failure
----------------------------------------------------------------------------
Tabbed by: Anki
Email: guitaranki@hotmail.com

Tuning: All string half step down (standard failure tuning)

Haven’t realy got much to say, other than the usual stuff. It’s a great 
Song off magnified. I had a hard time with the chorus so please rate.
The strumming isn’t exact.

Intro:
                         1)                      2) 
d#|-------------------      -------------------|     ----13-------13-------|
A#|-----12----12----12      ----13----13----13-|     -------12-------12----|
F#|--14----14----14---      -14----14----14----|     -14-------14-------14-|
C#|-------------------      -------------------|     ----------------------|
G#|-------------------      -------------------|     ----------------------|
D#|-------------------      -------------------|     ----------------------|

Verse (listen to the cd for the rhythm) :

d#|------------------------------------------------------------------------|
A#|------------------------------------------------------------------------|
F#|------------------------------------------------------------------------|
C#|--5-5-5-5---5-5-5-5---2-2-2-2---7-7-7-7---------------------------------|
G#|--5-5-5-5---5-5-5-5---2-2-2-2---7-7-7-7---------------------------------|
D#|--3-3-3-3---3-3-3-3---0-0-0-0---5-5-5-5---------------------------------|

Pre-chorus:(every chord is struck eight times - muted)

d#|------------------------------------------------------------------------|
A#|------------------------------------------------------------------------|
F#|------------------------------------------------------------------------|
C#|--8---7---5---3---------------------------------------------------------|
G#|--8---7---5---3---------------------------------------------------------|
D#|--6---5---3---1---------------------------------------------------------|

Chorus (you gotta listen to the cd too for the rhythm on this one):

d#|---------0--0-0--------0-----------0------------------------------------|
A#|---------0--0-0--------0--------------0-----0---------------------------|
F#|--3-3-3--3--3-3--------x-----------------3------------------------------|
C#|--4-4-4--4--4-4---2-2--2----2--2----------------------------------------|
G#|--4-4-4--4--4-4---2-2--2—---2--2----------------------------------------|
D#|--2-2-2--2--2-2---0-0--0----0--0----------------------------------------|

Outro:

d#|------------------------------------------------------------------------|
A#|------------------------------------------------------------------------|
F#|--------2---------------------------------------------------------------|
C#|-----0-----------------3------------------------------------------------|
G#|--1-----------------5---------------------------------------------------|
D#|-----------------3------------------------------------------------------|




| /  slide up
| \  slide down
| h  hammer-on
| p  pull-off
| ~  vibrato
| < > harmonic
| x  Mute note


 Mail me with comments or whatever. And please rate.
================================================================
Suggest correction
Give kudos to tab author, rate the tab!
1 2 3 4 5
comments
print report bad tab
1 comment total.
+1 reply
cristian.mina.3 10 wrote on April 1 2013, 11:26 am

I think the intro sould be:


E|--------------------------------------------------
B|------12------12------12------15------15------15--
G|--14------14------14------14------14------14------
D|--------------------------------------------------
A|--------------------------------------------------
E|--------------------------------------------------



E|------------------------------15----------15--------------
B|------12------12------12----------12----------12------12--
G|--14------14------14------14----------14----------14------
D|----------------------------------------------------------
A|----------------------------------------------------------
E|----------------------------------------------------------


Excellent work

guest
You may want to rate the tab now too:
select rating
Wanna post a correction for this tab? Suggest correction