Oops, an error
Loading. Please wait.

With This Easel Tab

724 views 1 this week
no commentswrite comment
1 2 3 4 5
please rate
add to favorites
launch autoscroll
font size
0
reset
how to read this tab
guitar tuner
Autoscroll
slow
fast
+/-
esc
set tempo
stop
Help us to improve Ultimate-Guitar.com Take our survey!
×
Contributor
Tuning is the Fair to Midland standard, CGCGCC.

By Sam Henly.
Email: sam_henners@hotmail.com

Intro
-----
C|-----------------------------------------|
C|-----------------------------------------|
G|-----------------------------------------|
C|-15p14--14---9h10--10--12---8p7-7--7-7-7-|
G|-12-----12---7-----7---10---5---5--7-7-7-|
C|-12-----12---7-----7---10---5---5--7-7-7-|  x3

C|---------------------------------------|
C|---------------------------------------|
G|---------------------------------------|
C|-15p14--14---9h10--10--12---14--15--15-|
G|-12-----12---7-----7---10---12--12--15-|
C|-12-----12---7-----7---10---12--12--15-|


Verse
-----

As Intro without second part x4.

Chorus
-------------------------------|
C|-----------------------------|
C|-----------------------------|
G|-----------------------------|
C|-7-7-7--0-0-0--7-7-7--0-0-0--|
G|-7-7-7--0-0-0--7-7-7--0-0-0--|
C|-7-7-7--0-0-0--7-7-7--0-0-0--|

C|----------------------------|
C|----------------------------|
G|----------------------------|
C|-8-8-8--0-0-0--8-8-8--0-0-0-|
G|-8-8-8--0-0-0--8-8-8--0-0-0-|
C|-8-8-8--0-0-0--8-8-8--0-0-0-| x2


C|-----------|
C|-----------|
G|-3-2---3-2-|
C|-3-2---3-2-|
G|-3-2---3-2-|
C|-----------|


Bridge
----------------|
C|--------------|
C|--------------|
G|--------------|
C|-77777-88888--|
G|-77777-88888--|
C|-77777-88888--|

C|-----------|
C|-----------|
G|-3-2---3-2-|
C|-3-2---3-2-|
G|-3-2---3-2-|
C|-----------|

C|-15--10--/10--8p7-|
C|-15--10--/10--8p7-|
G|-12--7---/10--5---|
C|-12--7---/12--5---|
G|-12--7---/10--5---|
C|------------------| until chorus, listen for strumming.


End with:

C|-----------|
C|-----------|
G|-----------|
C|-3-2---3-2-|
G|-3-2---3-2-|
C|-3-2---3-2-|
comments
We did not receive enough feedback on this tab! Please rate:
print report bad tab
1 2 3 4 5
I want to post or [tab]
guest
You may want to rate the tab now too:
select rating
Please do not post tabs as comments. Select "correction" instead!