Oops, an error
Loading. Please wait.

Caffeine Tab

version 1
version 1

Whole song

Interactive

28 views 12 this week
no commentswrite comment
1 2 3 4 5
3 more votes to show rating
add to favorites
launch autoscroll
font size
0
reset
how to read this tab
guitar tuner
Autoscroll
slow
fast
+/-
esc
set tempo
stop
Help us to improve Ultimate-Guitar.com Take our survey!
×
Author
Difficulty
intermediate
[Intro]

3/4 Timing

e|-----------------------------------------------------------------------------------------------|
B|-----------------------------------------------------------------------------------------------|
G|-----------------------------------------------------------------------------------------------|
D|--9----------9----------9-----------9----------9----------9----------9----------9-----7--9-----|
A|--7----------7----------7-----------7----------7----------7----------7----------7-----5--7-----|
E|-----0-0-0-0----0-0-0-0----0-0-0-0-----0-0-0-0----0-0-0-0----0-0-0-0----0-0-0-0---0-0----------|

e|--------------------------------------------------------------------------------|
B|--------------------------------------------------------------------------------|
G|--------------------------------------------------------------------------------|
D|------------9----------9-----------9------9-9-----9-9-----9-9-----9-9---5-5-5---|
A|------------7----------7-----------7------7-7-----7-7-----7-7-----7-7---5-5-5---|
E|----0-0-0-0----0-0-0-0----0-0-0-0-----0-0-----0-0-----0-0-----0-0-----0-3-3-3---|


[Verse]

e|--------------------------------------------------------------------------------------------|
B|--------------------------------------------------------------------------------------------|
G|--------------------------------------------------------------------------------------------|
D|--5----------5----------4----------4----------9----------9----------9----------9------7-----|
A|--7----------7----------5----------5----------7----------7----------7----------7------5-----|
E|-----0-0-0-0----0-0-0-0----0-0-0-0----0-0-0-0----0-0-0-0----0-0-0-0----0-0-0-0----0-0-------|

e|--------------------------------------------------------------------------------------------|
B|--------------------------------------------------------------------------------------------|
G|--------------------------------------------------------------------------------------------|
D|--5----------5----------4----------4----------9----------9----------9----------9------7-----|
A|--7----------7----------5----------5----------7----------7----------7----------7------5-----|
E|-----0-0-0-0----0-0-0-0----0-0-0-0----0-0-0-0----0-0-0-0----0-0-0-0----0-0-0-0----0-0-------|

e|--------------------------------------------------------------------------------------------|
B|--------------------------------------------------------------------------------------------|
G|--------------------------------------------------------------------------------------------|
D|--5----------5----------4----------4----------5----------5----------4----------4------------|
A|--7----------7----------5----------5----------7----------7----------5----------5------------|
E|-----0-0-0-0----0-0-0-0----0-0-0-0----0-0-0-0----0-0-0-0----0-0-0-0----0-0-0-0----0-0-0-0---|


[Chorus]

e|-------------------------------------------------------------------------------|
B|-------------------------------------------------------------------------------|
G|--7----------------------------------------------------------------------------|
D|--7--------1------/4-----------------------------------------------------------|
A|--5----------2-2-----6------------5h7----------5h7----------5h7----------5h7---|
E|--------------------------0-0-5h7------0-0-5h7------0-0-5h7------0-0-5h7-------|

e|----------------------------------------|
B|----------------------------------------|
G|--7-------------------------------------|
D|--7------------------1------/4-----2----|
A|--5-5-5-5-5-5-5-5-5----2-2-----6---2----|
E|-----------------------------------0----|

[Verse]

e|--------------------------------------------------------------------------------------------|
B|--------------------------------------------------------------------------------------------|
G|--------------------------------------------------------------------------------------------|
D|--5----------5----------4----------4----------9----------9----------9----------9------7-----|
A|--7----------7----------5----------5----------7----------7----------7----------7------5-----|
E|-----0-0-0-0----0-0-0-0----0-0-0-0----0-0-0-0----0-0-0-0----0-0-0-0----0-0-0-0----0-0-------|

e|--------------------------------------------------------------------------------------------|
B|--------------------------------------------------------------------------------------------|
G|--------------------------------------------------------------------------------------------|
D|--5----------5----------4----------4----------9----------9----------9----------9------7-----|
A|--7----------7----------5----------5----------7----------7----------7----------7------5-----|
E|-----0-0-0-0----0-0-0-0----0-0-0-0----0-0-0-0----0-0-0-0----0-0-0-0----0-0-0-0----0-0-------|

e|--------------------------------------------------------------------------------------------|
B|--------------------------------------------------------------------------------------------|
G|--------------------------------------------------------------------------------------------|
D|--5----------5----------4----------4----------5----------5----------4----------4------------|
A|--7----------7----------5----------5----------7----------7----------5----------5------------|
E|-----0-0-0-0----0-0-0-0----0-0-0-0----0-0-0-0----0-0-0-0----0-0-0-0----0-0-0-0----0-0-0-0---|


[Chorus]

e|-------------------------------------------------------------------------------|
B|-------------------------------------------------------------------------------|
G|--7----------------------------------------------------------------------------|
D|--7--------1------/4-----------------------------------------------------------|
A|--5----------2-2-----6------------5h7----------5h7----------5h7----------5h7---|
E|--------------------------0-0-5h7------0-0-5h7------0-0-5h7------0-0-5h7-------|

       Let it ring
e|----------------------------------------|
B|----------------------------------------|
G|--7-------------------------------------|
D|--7------------------1------/4-----2----|
A|--5--------------------2-2-----6---2----|
E|-----------------------------------0----|

[Bridge]

e|-----------------------------------------------------|
B|-----------------------------------------------------|
G|-----------------------------------------------------|
D|------2---3---5-------2---3-----------2----3----5----|
A|--0---------------0-----------3---0------------------|
E|-----------------------------------------------------|

e|---------------------------------------------------|
B|---------------------------------------------------|
G|---------------------------------------------------|
D|--------------------5-------------5-------5--------|
A|--0-6-7-0-6-7-0-6-7---0-6-7-0-6-7---0-6-7---0-3----|
E|------------------------------------------------0--|

No Guitar For A Bit

e|------------------------------------|
B|------------------------------------|
G|------------------------------------|
D|--9-9-9-5-5-5-3-3-3-6-6-6-----------|
A|--7-7-7-3-3-3-1-1-1-4-4-4-5-5-5-5---|
E|--------------------------3-3-3-3---|

e|------------------------------------|
B|------------------------------------|
G|------------------------------------|
D|--9-9-9-5-5-5-3-3-3-6-6-6-----------|
A|--7-7-7-3-3-3-1-1-1-4-4-4-5-5-5-5---|
E|--------------------------3-3-3-3---|

e|------------------------------------|
B|------------------------------------|
G|------------------------------------|
D|--9-9-9-5-5-5-3-3-3-6-6-6-----------|
A|--7-7-7-3-3-3-1-1-1-4-4-4-5-5-5-5---|
E|--------------------------3-3-3-3---|

e|------------------------------------------|
B|------------------------------------------|
G|------------------------------------------|
D|--9-9-9-5-5-5-3-3-3-6-6-6-----------------|
A|--7-7-7-3-3-3-1-1-1-4-4-4-5-5-5-5---------|
E|--------------------------3-3-3-3--0------|

e|-------------------------------------------------|
B|-------------------------------------------------|
G|-------------------------------------------------|
D|--------------------5-------------5-------5---5--|
A|--0-6-7-0-6-7-0-6-7---0-6-7-0-6-7---0-6-7---7----|
E|-------------------------------------------------|

e|-------------------------------------------------|
B|-------------------------------------------------|
G|-------------------------------------------------|
D|--------------------5-------------5-------5---5--|
A|--0-6-7-0-6-7-0-6-7---0-6-7-0-6-7---0-6-7---7----|
E|-------------------------------------------------|

e|-------------------------------------------------|
B|-------------------------------------------------|
G|-------------------------------------------------|
D|--------------------5-------------5-------5---5--|
A|--0-6-7-0-6-7-0-6-7---0-6-7-0-6-7---0-6-7---7----|
E|-------------------------------------------------|

e|------------------------------------------------------|
B|------------------------------------------------------|
G|------------------------------------------------------|
D|--------------------5-------------5-------5------7----|
A|--0-6-7-0-6-7-0-6-7---0-6-7-0-6-7---0-6-7---0-3--5----|
E|------------------------------------------------------|

[Chorus]

e|-------------------------------------------------------------------------------|
B|-------------------------------------------------------------------------------|
G|--7----------------------------------------------------------------------------|
D|--7--------1------/4-----------------------------------------------------------|
A|--5----------2-2-----6------------5h7----------5h7----------5h7----------5h7---|
E|--------------------------0-0-5h7------0-0-5h7------0-0-5h7------0-0-5h7-------|

e|-------------------------------------------------------------------------------|
B|-------------------------------------------------------------------------------|
G|--7----------------------------------------------------------------------------|
D|--7--------1------/4-----------------------------------------------------------|
A|--5----------2-2-----6------------5h7----------5h7----------5h7----------5h7---|
E|--------------------------0-0-5h7------0-0-5h7------0-0-5h7------0-0-5h7-------|

e|-----------------------------------------------------------------------------------------|
B|-----------------------------------------------------------------------------------------|
G|--7--------------------------------------------------------------------------------------|
D|--7------------------1------/4-----------------------------------------------------------|
A|--5-5-5-5-5-5-5-5-5----2-2-----6------------5h7----------5h7----------5h7----------5h7---|
E|------------------------------------0-0-5h7------0-0-5h7------0-0-5h7------0-0-5h7-------|

e|-----------------------------------|
B|-----------------------------------|
G|--7--------------------------------|
D|--7--------1------/4---------------|
A|--5----------2-2-----6-------------|
E|--------------------------0--------|


************************************

| x   Dead note
| g   Grace note
| (n) Ghost note
| h   Hammer-on
| p   Pull-off
| r   Release
| >   Accented note
| t   Tapping
| b   Bend
| br  Bend release
| pb  Pre-bend
| pbr Pre-bend release
| /   Slide up
| \   Slide down
| ~   Vibrato
| s   Slap
| P   Pop
| PM  Palm mute
| TR  Trill
| N   Tremolo

************************************
Suggest correction
Give kudos to tab author, rate the tab!
1 2 3 4 5
comments
print report bad tab
guest
You may want to rate the tab now too:
select rating
Wanna post a correction for this tab? Suggest correction