Oops, an error
Loading. Please wait.

Caralho Voador tab

version 1
version 1

Whole song

Interactive

859 views 1 this week
no commentswrite comment
1 2 3 4 5
2 more votes to show rating
add to favorites
×
Save as Personal and add changes to this tab that will be seen only by you. Learn more ›
×
You can save this tab as Personal to edit and correct it or add notes. All changes will be seen only by you. Learn more »
launch autoscroll
font size
0
reset
how to read this tab
guitar tuner
edit
Autoscroll
slow
fast
+/-
esc
set tempo
stop
Author
Unregistered
From: PARSONEA@snyalfva.cc.alfredtech.edu
Date:     Fri, 19 Jan 1996 21:50 EST
Subject:  upload- faith no more

carhalo valador
Faith No More, off king for a day, dick for a lifetime
submitted by Eric Parsons
What's up everyone!
The guitar work on all new Faith No More stuff is so much better than
old Jimmie boy was putting out, anyway here it is

e|-----0-------0----0------0--------0------|---0-----0-------0-----0-----|
B|-----0-------0----0------0--------0------|---0-----0-------0-----0-----|
G|-----0-------0----0------0--------0------|---0-----0-------0-----0-----|
D|----11-------11---11-----11-------11-----|---7-----7-------9-----9-----|
A|----12-------12---12-----12-------12-----|---7-----7-------7-----7-----|
E|12-----12-12---------12-----12-12-----12-|7----7-7----7-8----8-8----8--|
let all this crap ring out

this part repeats for a while then goes into

e|---------------------------------|---------------------------0--------|
B|---------------------------------|-----------------------------0------|
G|----6-----6----------6-----6-----|-----4-----4---------4--2-------2---|
D|--5-----5-----5----5-----5-----5-|---3-----3-----3---3-3--3-------0---|
A|---------------------------------|------------------------------------|
E|5-----5-----5----5-----5-----5---|-3------3----3---3------------------|


that nifty chord before the foreign language is e---12
                                                b   13
                                                g   12
                                                d   14
                                                a   12
                                                e   ---

            
            
Suggest correction
Creating personal tab
Creating personal tab
You can edit any tab online and save it as your Personal.

You can edit, replace or remove any tab part or add personal notes – all changes will be seen only by you.

Personal tabs can be accessed anytime from any device, even offline.
Learn more »
Give kudos to tab author, rate the tab!
1 2 3 4 5
comments
print report bad tab
guest
Wanna post a correction for this tab? Suggest correction