Oops, an error
Loading. Please wait.

Easy Bass

version 1
version 1

Whole song

Interactive

43,534 views 81 this week
no commentswrite comment
1 2 3 4 5
x 12
add to favorites
launch autoscroll
font size
0
reset
guitar tuner
backing track
0:00
0:00
×
Best way to learn
"Easy"
Autoscroll
slow
fast
+/-
esc
set tempo
stop
[Intro]
(piano chords)

G|----------------------------------------------------|
D|----------------------------------------------------|
A|----------------------------------------------------|
E|---------------------------------------11\----11\---|


[Verse 1]

G|----------------------------------------------------|
D|----------------------------------6\----------------|
A|----------3---------------6--6----------------------|
E|--4-----4-------4-6-----6----------------x----------|

G|----------------------------------------------------|
D|----------------------------------------------------|
A|----------3----3-6---8---------6--6--6--6--6--------|
E|--4-----4--------------6----------------------------|

G|----------------------------------------------------|
D|--------------------------------1--1----6\----------|
A|---------------3-------1------1---------------------|
E|--4----/16\--4-------1---------------------------x--|

G|-------------------------------------10p8-----------|
D|------------------------------------------10-8\6----|
A|----------3---x-6---8-------x-6-6----------------8--|
E|--4-----4-------------6-----------------------------|


[Chorus]

G|----------------------------------------------------|
D|----------------------------------------6\----------|
A|----------3----3-6---8---------6--6-----------------|
E|--4-----4--------------6-----6-------------------x--|
   < - - - - - - - - - - - 2x - - - - - - - - - - - >

G|----------------------------------------------------|
D|----------------------------------------------------|
A|----------3----3-6---8---------6--6-------9---8-----|
E|--4-----4--------------6-----6----------------------|

G|----------------------------------------------------|
D|----------------------------------------------------|
A|--6--6----------------------------------------------|
E|-----------4---------/16\---------------------------|


[Bridge]

G|----------------------------------------------------|
D|----------------------------------------------------|
A|-----------------------6~-------6----6------8\------|
E|--2-----1-2--2---1/-----------6----6----------------|

G|----------------------------------------------------|
D|----------------------------------------------------|
A|-----------------------6~-------6--8-6-------9\-----|
E|--2-----1-2--2---1/-----------6---------------------|

G|----------------------------------------------------|
D|----------------------------------------------------|
A|-----------------------6~----6--6b--6~--------------|
E|--2-----1-2--2---1/---------------------------------|

G|----------------------------------------------------|
D|---------------------------------------------11\----|
A|--2-------------------x-4h6--------4-------/--------|
E|--------1-2-----------------------------------------|


[Guitar Solo]

G|----------------------------------------------------|
D|--------------------------------------6\------------|
A|-----------3--3---------------6--6------------------|
E|--4------4----------x-6-----6-----------------x-----|

G|----------------------------------------------------|
D|--------------------------------8-------------------|
A|-----------3--3---3-6----8------------6--6--6--6--6-|
E|--4------4-----------------6--------6---------------|

G|----------------------------------------------------|
D|----------------------------------------------6-----|
A|---------------3--3/----x-------------6--6----------|
E|--4-----/16\-4--------------8-6-----6---------------|

G|----------------------------------------------------|
D|----------------------------------------------------|
A|-----------3--3----3-6----8---------------6-6-6-----|
E|--4------4------------------6-----------------------|

G|--10p8----------------------------------------------|
D|-------10-8\6---------------------------------------|
A|--------------8-------------------------------------|
E|----------------------------------------------------|


[Chorus]

G|----------------------------------------------------|
D|----------------------------------------6\----------|
A|----------3----3-6---8---------6--6-----------------|
E|--4-----4--------------6\----6-------------------x--|

G|----------------------------------------------------|
D|---------------------------8-8------------6\--------|
A|----------3----3-6---8-----------6--6---------------|
E|--4-----4--------------6-------6-----------------x--|

G|----------------------------------------------------|
D|----------------------------------------------------|
A|----------3--------------6--6-----/9------8\--------|
E|--4-----4-------4-6----6----------------------------|

G|----------------------------------------------------|
D|----------------------------------------------------|
A|--6--6\---------------------------------------------|
E|-----------4/---8/----11/---/16~--------------------|




************************************

| /     slide up
| \     slide down
| b     bend (whole step)
| b^    bend (1/2 step)
| b^^   bend (1 1/2 steps)
| pb    pre-bend
| r     release-bend
| t     tap with righthand finger
| h     hammer-on
| p     pull-off
| ~     Vibrato
| *     Natural Harmonic
| #(#)  Trill
| x     Dead notes (no pitch)
| P.M.  Palm mute (- -> underneath indicates which notes)
| Tp    Tap w\plectrum

************************************
Suggest correction
comments
print report bad tab
guest
You may want to rate the tab now too:
select rating
Wanna post a correction for this tab? Suggest correction