Oops, an error
Loading. Please wait.

Pure Silence Tab

466 views 1 this week
1 commentread comment
1 2 3 4 5
please rate
add to favorites
launch autoscroll
font size
0
reset
how to read this tab
guitar tuner
Autoscroll
slow
fast
+/-
esc
set tempo
stop
Help us to improve Ultimate-Guitar.com Take our survey!
×
Author
-------------------------------------------------------------------------------
                             PURE SILENCE - Faithful Darkness
-------------------------------------------------------------------------------
Tabbed by: Marshal
Email: mechanical_animal66@hotmail.com

Tuning: DROP C

Solo is 85% complete, I will update it soon as I figure it out! In the mean
time, your input is appreciated. 

INTRO

e|---------------------------------------------------------------------------|
B|---------------------------------------------------------------------------|
G|---------------------------------------------------------------------------|
D|--------------///----------------------------------------------------------|
A|--------------///----------------------------------------------------------|
E|-00-00-00-00--///----------------------------------------------------------|
   .. .. .. ..

RIFF 2

e|---------------------------------------------------------------------------|
B|---------------------------------------------------------------------------|
G|---------------------------------------------------------------------------|
D|--------------2h5p2-1h4p1--------------------------------------------------|
A|---5-4---5-4---------------5-4-----049865----------------------------------|
E|-00-0--00-0-00-----------00-0--0045----------------------------------------|
   .. .  .. . ..           .. .  ..........

e|---------------------------------------------------------------------------|
B|---------------------------------------------------------------------------|
G|---------------------------------------------------------------------------|
D|----------------------------------------1/2-2/4----------------------------|
A|---5-4---5-4-----------------5-4---5-4--1/2-2/4----------------------------|
E|-00-0--00-0-00-2h5p2-1h4p1-00-0--00-0-001/2-2/4----------------------------|
   .. .  .. . ..             .. .  .. . ..

RIFF 3

e|---------------------------------------------------------------------------|
B|---------------------------------------------------------------------------|
G|---------------------------------------------------------------------------|
D|---------------------------------------------------------------------------|
A|---------------------------------------------------------------------------|
E|-00-00-00-00-0h1h4p1--00-00-00-00--000-000---------------------------------|
   .. .. .. ..          .. .. .. ..  ... ...

e|---------------------------------------------------------------------------|
B|---------------------------------------------------------------------------|
G|---------------------------------------------------------------------------|
D|---------------------------------2h5p2-1h4p1-------------------------------|
A|---------------------------------------------------------------------------|
E|-00-00-00-00-0h1h4p1-00-00-00-00-------------------------------------------|
   .. .. .. ..         .. .. .. ..

FILL 1                  FILL 2

e|---------------------------------------------------------------------------|
B|---------------------------------------------------------------------------|
G|-8-8/11-8-5-5/8-4-----8-8/11-8-5-5/8-4ph-----------------------------------|
D|-x-x-x--x-x-x-x-x-----x-x--x-x-x-x-x---------------------------------------|
A|-6-6/9--6-3-3/6-2-----6-6/-9-6-3-3/6---------------------------------------|
E|---------------------------------------------------------------------------|

RIFF 4

e|---------------------------------------------------------------------------|
B|---------------------------------------------------------------------------|
G|---------------------------------------------------------------------------|
D|--------------------------55-----------------------------------------------|
A|--------------------------33-55--------------------------------------------|
E|-0-307630-0307630-0307630----55-7ph----------------------------------------|
   
e|---------------------------------------------------------------------------|
B|---------------------------------------------------------------------------|
G|---------------------------------------------------------------------------|
D|--------------------------55-55-33-33--------------------------------------|
A|--------------------------33-33-11-11--------------------------------------|
E|-0-307630-0307630-0307630--------------------------------------------------|

RIFF 6 GUITAR 1

e|---------------------------------------------------------------------------|
B|---------------------------------------------------------------------------|
G|---------------------------------------------------------------------------|
D|-2--------5--------------7--------5----------------------------------------|
A|-2--------5--------------7--------5----------------------------------------|
E|-2--------5--------------7--------5----------------------------------------|

RIFF 6 GUITAR 2

e|---------------------------------------------------------------------------|
B|---------------------------------------------------------------------------|
G|-9-99-999-12-1212-121212-9-99-999-12-12-111111-----------------------------|
D|-x-xx-xxx-x--x-x--x-x-x--x-xx-xxx-x--x--x-x-x------------------------------|
A|-7-77-777-10-1010-101010-7-77-777-10-10-9-9-9------------------------------|
E|---------------------------------------------------------------------------|

SOLO GUITAR 1

e|-17-15-13v--12-13p12-13p12--17-15-13--12/13--------------------------------|
B|-----------------------------------------------------------10h11-10v-------|
G|------------------------------------------------------10h12----------------|
D|-------------------------------------------------12h14---------------------|
A|--------------------------------------------12h13--------------------------|
E|---------------------------------------------------------------------------|

e|---------------------------------------------------------------------------|
B|-//15v-15-15v-13-15-15p13p10-13-13/15-6v--18p17p15-18p17p15-18p17p15-------|
G|---------------------------------------------------------------------------|
D|---------------------------------------------------------------------------|
A|---------------------------------------------------------------------------|
E|---------------------------------------------------------------------------|

e|---------------------------------------------------------------------------|
B|-18p17p15-20p18p17-20p18p17-20p18p17-20p18p17-22p20p18-22p20p18-22p20p18---|
G|---------------------------------------------------------------------------|
D|---------------------------------------------------------------------------|
A|---------------------------------------------------------------------------|
E|---------------------------------------------------------------------------|

e|---------------------------------------------------------------------------|
B|-22p20p18-18p17-----18p17------17t10t13t17t10t13t17t10t13t17t10t13---------|
G|---------------17p15-----17p15---------------------------------------------|
D|---------------------------------------------------------------------------|
A|---------------------------------------------------------------------------|
E|---------------------------------------------------------------------------|

e|---------------------------------------------------------------------------|
B|-20t13t17t20t13t17t-15t8t11t15t8t11t15t8t11t15t8t11t15t8t11t15t8t11--------|
G|---------------------------------------------------------------------------|
D|---------------------------------------------------------------------------|
A|---------------------------------------------------------------------------|
E|---------------------------------------------------------------------------|

e|-------------------------------------------------------------1717171515----|
B|-17t10t13t17t10t13t17t10t13t17t10t13-------------151515181818----------1818|
G|-------------------------------------141414151515--------------------------|
D|---------------------------------------------------------------------------|
A|---------------------------------------------------------------------------|
E|---------------------------------------------------------------------------|

e|-1515--17v-//22v-22/20-20-1801701501301501301208/10------------------------|
B|---------------------------------------------------------------------------|
G|-----------------------------------------------------------15h17p15--------|
D|------------------------------------------------------15h17--------17p15/14|
A|----------------------------------------------------17---------------------|
E|---------------------------------------------------------------------------|

e|---------------------------------------------------------------------------|
B|---------------------------------------------------------------------------|
G|--------15h17p15---------------15h17p15---------------15h17p15-------------|
D|---15h17--------17p15/14--15h17--------17p15/14--15h17--------17p15/14v----|
A|-17---------------------17---------------------17--------------------------|
E|---------------------------------------------------------------------------|

e|---------------------------------------------------------------------------|
B|-18-17---------------------------------------------------------------------|
G|-------17------------------------------------------------------------------|
D|----------19v--------------------------------------------------------------|
A|---------------------------------------------------------------------------|
E|---------------------------------------------------------------------------|


SOLO GUITAR 2

e|---------------------------------------------------------------------------|
B|---------------------------------------------------------------------------|
G|---------------------------------------------------------------------------|
D|-0~--8~--0~--8~--0~--8~--0~--8~--0~--8~--0~--8~--0~--8~--7~-------3~-------|
A|-0~--8~--0~--8~--0~--8~--0~--8~--0~--8~--0~--8~--0~--8~--7~--3333-3~-------|
E|-0~--8~--0~--8~--0~--8~--0~--8~--0~--8~--0~--8~--0~--8~--7~--3333-3~-------|
                                                               ....

| /  slide up
| \  slide down
| h  hammer-on
| p  pull-off
| ~  vibrato
| ph harmonic
| x  Mute note (also dotted notes)
===============================================================================
Suggest correction
What's this?
You can suggest a correction to this tab. Community and Mods will review your correction and vote to approve or reject it.
comments
We did not receive enough feedback on this tab! Please rate:
print report bad tab
1 2 3 4 5
1 comment total.
0 reply
a7xf@n43v3r 344 wrote on March 25 2010, 02:19 pm

thank you so much for this tab! This is my favorite song by this awesome band and you've tabbed it extremely well, 5 stars!

guest
You may want to rate the tab now too:
select rating
Please do not post tabs as comments. Select "correction" instead!