Oops, an error
Loading. Please wait.

Bring My Family Back Acoustic Tab

1,986 views 1 this week
1 commentread comment
1 2 3 4 5
please rate
add to favorites
launch autoscroll
font size
0
reset
how to read this tab
guitar tuner
Autoscroll
slow
fast
+/-
esc
set tempo
stop
Help us to improve Ultimate-Guitar.com Take our survey!
×
Faithless - Bring My Family Back (Acoustic)
Standard tuning

This is from the acoustic set played at Glastonbury 1999 (on YouTube),
I figured it out so I figured I might as well just post it.

Well it’s not perfect, I’m quite aware that there are a few wrong bits
but if anyone wants to use it as a start to find the small problems be my
guest!

The chords are: (The names are wrong! I just guessed them ;P)

[Am/E]       [G/E]   [Fmaj7sus2/E] [D6sus2/E]
e|-0-----------0-----------0-----------0-|
b|-0-----------0-----------5-----------5-|
g|-5-----------4-----------5-----------5-|
d|-7-----------5-----------3-----------0-|
a|-7-----------5-----------3-----------3-|
e|---------------------------------------|

Fingerpick the start obviously. Something like:
e|---------0-----------0-------------|
b|-----0-----0-----0-----0-----0-----|
g|---5---5-------5---5-------5---5---|
d|-7-----------7-----------7---------|
a|-----------------------------------|
e|-----------------------------------|

e|---------0-----------0-------------|
b|-----0-----0-----0-----0-----0-----|
g|---4---4-------4---4-------4---4---|
d|-5-----------5-----------5---------|
a|-----------------------------------|
e|-----------------------------------|

e|-----------------------------------|
b|-----0---5-------0---5-------0-----|
g|---5---5---5---5---5---5---5---5---|
d|-3-----------3-----------3---------|
a|-----------------------------------|
e|-----------------------------------|

e|---------------------------|
b|-----0---5-----------------|
g|---5---5---5---5~~~~-------|
d|-0-----------0-------------|
a|---------------------------|
e|---------------------------|

Rhythmic strumming of the chords for the verses and there’s a wee tiny bit
of palm muting near the end of the song. Just listen to the song and its
really easy to figure out the strumming pattern and order.

Sorted!
Suggest correction
Give kudos to tab author, rate the tab!
1 2 3 4 5
comments
print report bad tab
1 comment total.
0 reply
Akustik223 10 wrote on June 29 2012, 09:58 pm

the end is wrong. (After the second Change of the Fingerpick)

E------------0--------------0-----------
H-------3-------------3--------------3--
G-----2----2-------2-----2--------2-----
D--3------------3--------------3--------
A---------------------------------------
E---------------------------------------

E--------------0--------------
H--------1--------1-----------
G-----2-----2--------2--------
D--0--------------------0~~~--
A-----------------------------
E-----------------------------

guest
You may want to rate the tab now too:
select rating
Please do not post tabs as comments. Select "correction" instead!