Oops, an error
Loading. Please wait.

Drifting Away Tab

version 1
version 1

Whole song

Interactive

4,115 views 1 this week
1 commentread comment
1 2 3 4 5
excellent!
x 5
add to favorites
launch autoscroll
font size
0
reset
how to read this tab
guitar tuner
Tab Pro tools
  • play this tab
  • loop segment
  • change instrument
  • show fretboard
  • metronome
×
Best way to learn
"Drifting Away"
Autoscroll
slow
fast
+/-
esc
set tempo
stop
Contributor
www.faithless.com

DRIFTING AWAY - Faithless
From their first album "Reverence"
Tabbed by Mathieu Klomp


Hi all
So this is my first tab (how cliche, its true though), so if it sucks..
I'm sure about the melody, dunno if it should be higher or lower,
(on the keyboard i start with an A, so you might as well play it one string
lower, starting with the A string). I think you should try it, even if you don't
know the song!! It's very easy so give it a try. There's no special rythm to it,
just keep 1 picking interval all along. 

Play this one TWICE

e|-------------------------------------------------|
B|-------------------------------------------------|
G|-----2--0--2-----2-----2-----2--0--2--3--2--0----|
D|--0-----------3-----2-----0--------------------3-|
A|-------------------------------------------------|
E|-------------------------------------------------|2x

Play these two ONCE

e|-------------------------------------------------|
B|-----3--1--3-----3-----3-----3-----3-----3-----3-|
G|--------------3-----2-----0-----------0-----2----|
D|--0-----------------------------3----------------|
A|-------------------------------------------------|
E|-------------------------------------------------|1x

e|--------------------------1--0-------------------|
B|-----3--1--3-----3-----3--------3--1-----------3-|
G|--------------3-----2-----------------3--2--0----|
D|--0----------------------------------------------|
A|-------------------------------------------------|
E|-------------------------------------------------|1x

And that's it. You can loop it, make sure you end on:

e|----
B|----
G|----
D|--0-
A|----
E|----

(doh!)

Comments... maelstorm84@hotmail.com
Cheerz
comments
print report bad tab
1 comment total.
0 reply
leeboy105 wrote on June 18 2004, 12:00 am

e|-------------------------------------------------|
B|-------------------------------------------------|
G|-----2--0--2-----2-----2-----2--0--2--3--0-------|
D|--0-----------3-----2-----0-----------------3--2-|
A|-------------------------------------------------|
E|-------------------------------------------------|

That's the correct first line.

Also the last of the three lines should end on :

E|---
B|---
G|---
D|-3-
A|---
E|---

I want to post or [tab]
guest
You may want to rate the tab now too:
select rating
Please do not post tabs as comments. Select "correction" instead!