Oops, an error
Loading. Please wait.

Insomnia Tab

version 1
version 1

Intro

Interactive

7,940 views 6 this week
2 commentsread comments
1 2 3 4 5
3 more votes to show rating
add to favorites
launch autoscroll
font size
0
reset
how to read this tab
guitar tuner
Autoscroll
slow
fast
+/-
esc
set tempo
stop
Help us to improve Ultimate-Guitar.com Take our survey!
×
Author
Difficulty
novice
-------------------------------------------------------------------------------
                             ISNOMNIA - Faithless
-------------------------------------------------------------------------------
Tabbed by: sherloc
Email: n/a

Tuning: Standard


e|-----------------------------------------------------------------------------|
B|--------------6-6-6----------------------------------------------------------|
G|---9-9-7-7-7--------7-7-7-6-7------------------------------------------------| X2
D|-----------------------------------------------------------------------------|
A|-----------------------------------------------------------------------------|
E|-----------------------------------------------------------------------------|

e|---------------------------------------------------------------------------|
B|-------7-7-7---------------------------------------------------------------|
G|---9-9-------6-6-6--7-7-7-6-7----------------------------------------------|
D|---------------------------------------------------------------------------|
A|---------------------------------------------------------------------------|
E|---------------------------------------------------------------------------|

So there you go.
Suggest correction
Give kudos to tab author, rate the tab!
1 2 3 4 5
comments
print report bad tab
2 comments total.
0 reply
Sherloc 16 Aug 30, 2006 03:14 PM

I forgot to add 2x for the second one.

0 reply
Gabba_Gandalf 10 Oct 06, 2008 07:05 AM

i think you meante|------------------------------------------------------------------|
B|-----------------------------------------------------------------------|
G|---9-9-7-7-7-6-6-6-7-7-7-6-7-------------------------------------------|
D|-----------------------------------------------------------------------|
A|-----------------------------------------------------------------------|
E|-----------------------------------------------------------------------|

OMG

guest
You may want to rate the tab now too:
select rating
Wanna post a correction for this tab? Suggest correction