Oops, an error
Loading. Please wait.

Too Cold To Hold tab

73 views 3 this week
no commentswrite comment
1 2 3 4 5
3 more votes to show rating
add to favorites
×
Save as Personal and add changes to this tab that will be seen only by you. Learn more ›
×
You can save this tab as Personal to edit and correct it or add notes. All changes will be seen only by you. Learn more »
launch autoscroll
font size
0
reset
how to read this tab
guitar tuner
edit
Autoscroll
slow
fast
+/-
esc
set tempo
stop
You'll need two capos for this. One on the 1st fret and one on the 5th fret but not covering the E string.
Because of the two capos this may be tricky to read but if you watch this video it should be clearer 
https://www.youtube.com/watch?v=6Mh7NmZsbr4 

[Intro]

e|-0-0-0-0-0-0-0-0-0-0-0-0-0-0-0-|
B|-0-0-0-0-0-0-0-0-0-0-0-0-0-0-0-|
G|-0-0-0-0-0-0-0-0-0-0-0-0-0-0-0-|
D|-0-0-0-0-0-0-0-0-0-0-0-0-0-0-0-|
A|-7-7-7-7-7-7-7-0-0-0-0-0-0-0-0-|
E|-8-8-8-8-8-8-8-0-0-0-0-3-3-3-3-| (x2)

[Verse]

e|-0-0-0-0-0-0-0-0-0-0-0-0-0-0-0-|
B|-0-0-0-0-0-0-0-0-0-0-0-0-0-0-0-|
G|-0-0-0-0-0-0-0-0-0-0-0-0-0-0-0-|
D|-0-0-0-0-0-0-0-0-0-0-0-0-0-0-0-|
A|-7-7-7-7-7-7-7-0-0-0-0-0-0-0-0-|
E|-8-8-8-8-8-8-8-0-0-0-0-3-3-3-3-| (x8)

See I've got this problem with talking to myself
And hardly ever to anyone else
It's not that I have nothing to share
I'm just not quite ready to reveal the faults I bare

[Chorus]

C          Em  Am
But I'm pretty sure
C        D      Am 
That I'd prefer some company


[Verse]

e|-0-0-0-0-0-0-0-0-0-0-0-0-0-0-0-|
B|-0-0-0-0-0-0-0-0-0-0-0-0-0-0-0-|
G|-0-0-0-0-0-0-0-0-0-0-0-0-0-0-0-|
D|-0-0-0-0-0-0-0-0-0-0-0-0-0-0-0-|
A|-7-7-7-7-7-7-7-0-0-0-0-0-0-0-0-|
E|-8-8-8-8-8-8-8-0-0-0-0-3-3-3-3-| (x8)

Now every night I find myself here
Battling good and evil and facing every fear
So I turn off the lights and I turn off my phone
Lay on the floor and face being alone
It's not as bad as you'd think

[Chorus]

C          Em  Am
But I'm pretty sure
C        D      Am 
That I'd prefer some company

[Verse]

e|-------------------------------|
B|-------------------------------|
G|-------0-----------------------|
D|-----0---0-------0-----0-------|
A|---7-------7---0-----0---------|
E|-8-----------0-----3-----------| (x4)

e|-0-0-0-0-0-0-0-0-0-0-0-0-0-0-0-|
B|-0-0-0-0-0-0-0-0-0-0-0-0-0-0-0-|
G|-0-0-0-0-0-0-0-0-0-0-0-0-0-0-0-|
D|-0-0-0-0-0-0-0-0-0-0-0-0-0-0-0-|
A|-7-7-7-7-7-7-7-0-0-0-0-0-0-0-0-|
E|-8-8-8-8-8-8-8-0-0-0-0-3-3-3-3-| (x8)

So I've got this problem with talking to myself
About learning to live with the hand life has dealt
I discover solutions over and over again 
But I drown them out over every weekend


[Chorus]

C             Em  Am
I'm still pretty sure
C        D      Am 
That I'd prefer some company
C             Em  Am
Not cold bodies
C        D      Am              G
But someone to expect more from me

            
            
Suggest correction
Creating personal tab
Creating personal tab
You can edit any tab online and save it as your Personal.

You can edit, replace or remove any tab part or add personal notes – all changes will be seen only by you.

Personal tabs can be accessed anytime from any device, even offline.
Learn more »
Give kudos to tab author, rate the tab!
1 2 3 4 5
comments
print report bad tab
guest
You may want to rate the tab now too:
select rating
Wanna post a correction for this tab? Suggest correction