Oops, an error
Loading. Please wait.

Angel Lust tab

version 2
version 2

Whole song

116 views 1 this week
no commentswrite comment
1 2 3 4 5
3 more votes to show rating
add to favorites
×
Save as Personal and add changes to this tab that will be seen only by you. Learn more ›
×
You can save this tab as Personal to edit and correct it or add notes. All changes will be seen only by you. Learn more »
launch autoscroll
font size
0
reset
how to read this tab
guitar tuner
edit
Autoscroll
slow
fast
+/-
esc
set tempo
stop
Angels Lust - Fake Shark Real Zombie
I don't think this is the actual guitar track, but it sounds close enough and it's a fun 
song to fool around with :) Please rate/comment~

Intro:

E|--15------15--14--|
B|------15----------|
G|------------------|
D|------------------|
A|------------------|
E|------------------|

Verse 1

|e---------------------------------|
|B---------------------------------|
|G---------------------------------| (x3)
|D---------------------------------|
|A-7-7-7-7-7-7-7-7-7-7-7-7-7-7-7-7-|
|E---------------------------------|

|e---------------------------------|----------------------------------|
|B---------------------------------|----------------------------------|
|G---------------------------------|----------------------------------|
|D---------------------------------|----------------------------------|
|A-7-7-7-7-7-7-5-5-3-3-3-3-3-3-3-3-|-0-0-0-0-0-0-3-3-5-5-7-7-7-7-7-7-7|
|E---------------------------------|----------------------------------|

|e---------------------------------|
|B---------------------------------|
|G---------------------------------|
|D---------------------------------| listen to song for how many to play.
|A-7-7-7-7-7-7-7-7-7-7-7-7-7-7-7-7-|
|E---------------------------------|


E|--12~--|
B|--12~--|
G|--12~--|
D|--12~--|
A|-------|
E|-------|

E|--------------------------------------------------------------|
B|--------------------------------------------------------------|
G|--------------------------------------------------------------|
D|--------------------------------------------------------------|
A|--7--7--x--x--x--x--7--x--x--x--x--7--7--x--x--x--x--7\5\3----|
E|--x--x--x--x--x--x--x--x--x--x--x--x--x--x--x--x--x--x-x-x----|

E|----------------------------------------------------|
B|----------------------------------------------------|
G|----------------------------------------------------|
D|----------------------------------------------------|
A|--3--3--x--x--x--x--3--x--x--x--x--3--3/5/7/10\7----|
E|--x--x--x--x--x--x--x--x--x--x--x--x--x-x-x-x--x----|


E|--------------------------------------------------------------|
B|--------------------------------------------------------------|
G|--------------------------------------------------------------|
D|--------------------------------------------------------------|
A|--7--7--x--x--x--x--7--x--x--x--x--7--7--x--x--x--x--7\5\3----|
E|--x--x--x--x--x--x--x--x--x--x--x--x--x--x--x--x--x--x-x-x----|

E|----------------------------------------------------|
B|----------------------------------------------------|
G|----------------------------------------------------|
D|----------------------------------------------------|
A|--3--3--x--x--x--x--3--x--x--x--x--3--3/5/7/10\7----|
E|--x--x--x--x--x--x--x--x--x--x--x--x--x-x-x-x--x----|

E|--------------------------------------------------------------|
B|--------------------------------------------------------------|
G|--------------------------------------------------------------|
D|--------------------------------------------------------------|
A|--7--7--x--x--x--x--7--x--x--x--x--7--7--x--x--x--x--7\5\3----|
E|--x--x--x--x--x--x--x--x--x--x--x--x--x--x--x--x--x--x-x-x----|

E|--------------------------------------------------------------------|
B|--------------------------------------------------------------------|
G|--------------------------------------------------------------------|
D|--------------------------------------------------------------------|
A|--3--3--x--x--x--x--3--x--x--x--x--3--3/5/7/10/14/15~----15--19~----|
E|--x--x--x--x--x--x--x--x--x--x--x--x--x-x-x-x-----------------------|

Chorus

|e---------------------------------------|
|B---------------------------------------|
|G---------------------------------------|
|D---------------------------------------|
|A-5/7\5---------5/7~----5/7\5-----------|
|E-x-x-x--7-5-3--x-x-----x-x-x----7-5-3--|

|e---------------------------------|
|B---------------------------------|
|G---------12-11-9-----------------|
|D-10-12-10------------------------|
|A---------------------------------|
|E---------------------------------|

|e---------------------------------------|
|B---------------------------------------|
|G---------------------------------------|
|D---------------------------------------|
|A-5/7\5---------5/7~----5/7\5-----------|
|E-x-x-x--7-5-3--x-x-----x-x-x----7-5-3--|

|e------------------------------------|
|B------------------------------------|
|G---------12-11-9~~~-----------------|
|D-10-12-10---------------------------|
|A------------------------------------|
|E------------------------------------|


Verse 2

E|---------------------------------------|
B|---------------------------------------|
G|---------------------------------------|
D|---------------------------------------|
A|--7--7--7--7/5--5--5--5/3--3--3--3--x--|
E|--x--x--x--x-x--x--x--x-x--x--x--x--x--|


E|--------------------------------------------------------------|
B|--------------------------------------------------------------|
G|--------------------------------------------------------------|
D|--------------------------------------------------------------|
A|--7--7--x--x--x--x--7--x--x--x--x--7--7--x--x--x--x--7\5\3----|
E|--x--x--x--x--x--x--x--x--x--x--x--x--x--x--x--x--x--x-x-x----|

E|----------------------------------------------------|
B|----------------------------------------------------|
G|----------------------------------------------------|
D|----------------------------------------------------|
A|--3--3--x--x--x--x--3--x--x--x--x--3--3/5/7/10\7----|
E|--x--x--x--x--x--x--x--x--x--x--x--x--x-x-x-x--x----|


E|--------------------------------------------------------------|
B|--------------------------------------------------------------|
G|--------------------------------------------------------------|
D|--------------------------------------------------------------|
A|--7--7--x--x--x--x--7--x--x--x--x--7--7--x--x--x--x--7\5\3----|
E|--x--x--x--x--x--x--x--x--x--x--x--x--x--x--x--x--x--x-x-x----|

E|----------------------------------------------------|
B|----------------------------------------------------|
G|----------------------------------------------------|
D|----------------------------------------------------|
A|--3--3--x--x--x--x--3--x--x--x--x--3--3/5/7/10\7----|
E|--x--x--x--x--x--x--x--x--x--x--x--x--x-x-x-x--x----|

E|--------------------------------------------------------------|
B|--------------------------------------------------------------|
G|--------------------------------------------------------------|
D|--------------------------------------------------------------|
A|--7--7--x--x--x--x--7--x--x--x--x--7--7--x--x--x--x--7\5\3----|
E|--x--x--x--x--x--x--x--x--x--x--x--x--x--x--x--x--x--x-x-x----|

E|--------------------------------------------------------------------|
B|--------------------------------------------------------------------|
G|--------------------------------------------------------------------|
D|--------------------------------------------------------------------|
A|--3--3--x--x--x--x--3--x--x--x--x--3--3/5/7/10/14/15~----15--19~----|
E|--x--x--x--x--x--x--x--x--x--x--x--x--x-x-x-x-----------------------|


Repeat Chorus


Bridge

|e-------------------------------------------|
|B-------------------------------------------|
|G-------------------------------------------|
|D-------------------------------------------|
|A-5/7\5---------5/7\5---------5/7\5---------|
|E-x-x-x--7-5-3--x-x-x--7-5-3--x-x-x--7-5-3--|

|e---------------------------------|
|B---------------------------------|
|G---------12-11-9-----------------|
|D-10-12-10------------------------|
|A---------------------------------|
|E---------------------------------|

|e-------------------------------------------|
|B-------------------------------------------|
|G-------------------------------------------|
|D-------------------------------------------|
|A-5/7\5---------5/7\5---------5/7\5---------|
|E-x-x-x--7-5-3--x-x-x--7-5-3--x-x-x--7-5-3--|

|e---------------------------------|
|B---------------------------------|
|G---------12-11-9-----------------|
|D-10-12-10------------------------|
|A---------------------------------|
|E---------------------------------|

|e-------------------------------------------|
|B-------------------------------------------|
|G-------------------------------------------|
|D-------------------------------------------|
|A-5/7\5---------5/7\5---------5/7\5---------|
|E-x-x-x--7-5-3--x-x-x--7-5-3--x-x-x--7-5-3--|

|e----------------------------------7~----|
|B----------------------------------------|
|G---------12-11-9~----7~----2/4~---------|
|D-10-12-10-------------------------------|
|A----------------------------------------|
|E----------------------------------------|

|e-----------------------15~----|
|B------------------------------|
|G---9~----7~----11~------------|
|D------------------------------|
|A------------------------------|
|E------------------------------|

|e----------------------7~----|
|B----------------------------|
|G---9~----7~----2/4~---------|
|D----------------------------|
|A----------------------------|
|E----------------------------|

|e-----------------------15-----15--14~--|
|B--------------------------15-----------|
|G---9~--------11~-----------------------|
|D---------------------------------------|
|A---------------------------------------|
|E---------------------------------------|

E|--------------------------------------------------------------|
B|--------------------------------------------------------------|
G|--------------------------------------------------------------|
D|--------------------------------------------------------------|
A|--7--7--------------7--------------7--7--------------7\5\3----|
E|--x--x--------------x--------------x--x--------------x-x-x----|

E|--------------------------------------------------------------------|
B|--------------------------------------------------------------------|
G|--------------------------------------------------------------------|
D|--------------------------------------------------------------------|
A|--3--3--------------3--------------3--3/5/7/10/14/15~----15--19~----|
E|--x--x--------------x--------------x--x-x-x-x-----------------------|



Final Chorus

|e---------------------------------------|
|B---------------------------------------|
|G---------------------------------------|
|D---------------------------------------|
|A-5/7\5---------5/7~----5/7\5-----------|
|E-x-x-x--7-5-3--x-x-----x-x-x----7-5-3--|

|e---------------------------------|
|B---------------------------------|
|G---------12-11-9-----------------|
|D-10-12-10------------------------|
|A---------------------------------|
|E---------------------------------|

|e---------------------------------------|
|B---------------------------------------|
|G---------------------------------------|
|D---------------------------------------|
|A-5/7\5---------5/7~----5/7\5-----------|
|E-x-x-x--7-5-3--x-x-----x-x-x----7-5-3--|

|e------------------------------------|
|B------------------------------------|
|G---------12-11-9--------------------|
|D-10-12-10---------------------------|
|A------------------------------------|
|E------------------------------------|

|e-------------------------------------------|
|B-------------------------------------------|
|G-------------------------------------------|
|D-------------------------------------------|
|A-5/7\5---------5/7\5---------5/7\5---------|
|E-x-x-x--7-5-3--x-x-x--7-5-3--x-x-x--7-5-3--|

|e---------------------------------|
|B---------------------------------|
|G---------12-11-9-----------------|
|D-10-12-10------------------------|
|A---------------------------------|
|E---------------------------------|

|e-------------------------------------------|
|B-------------------------------------------|
|G-------------------------------------------|
|D-------------------------------------------|
|A-5/7\5---------5/7\5---------5/7\5---------|
|E-x-x-x--7-5-3--x-x-x--7-5-3--x-x-x--7-5-3--|

|e------------------------------------|
|B------------------------------------|
|G---------12-11-9~~~-----------------|
|D-10-12-10---------------------------|
|A------------------------------------|
|E------------------------------------|
Suggest correction
Creating personal tab
Creating personal tab
You can edit any tab online and save it as your Personal.

You can edit, replace or remove any tab part or add personal notes – all changes will be seen only by you.

Personal tabs can be accessed anytime from any device, even offline.
Learn more »
Give kudos to tab author, rate the tab!
1 2 3 4 5
comments
print report bad tab
guest
You may want to rate the tab now too:
select rating
Wanna post a correction for this tab? Suggest correction