Oops, an error
Loading. Please wait.

500 Km Al Norte tab

version 2
version 2

Whole song

by Fakie
47 views 1 this week
no commentswrite comment
1 2 3 4 5
3 more votes to show rating
add to favorites
×
Save as Personal and add changes to this tab that will be seen only by you. Learn more ›
×
You can save this tab as Personal to edit and correct it or add notes. All changes will be seen only by you. Learn more »
launch autoscroll
font size
0
reset
how to read this tab
guitar tuner
edit
Autoscroll
slow
fast
+/-
esc
set tempo
stop
Fakie - 500 Km Al Norte

Esta kncion se la dedico a mi polola q la kero muxo


Guitarra 1(Palmute)
|---------------------------------------------|
|---------------------------------------------|
|-xx4xx4x4xx4xx444xx4xx444xx4xx444------------|
|-xx1xx1x1xx2xx222xx2xx222xx1xx111------------|
|-xx2xx2x2xx4xx444xx0xx000xx2xx222------------|
|---------------------------------------------|

Guitarra 1(Palmute)
Ha Pasado El Tiempo ...
|---------------------------------------------|
|---------------------------------------------|
|-xx4xx444xx4xx444xx4xx444xx4xx444------------|
|-xx1xx111xx2xx222xx2xx222xx1xx111------------|  (Comienza La Bateria)
|-xx2xx222xx4xx444xx0xx000xx2xx222------------|
|---------------------------------------------|

Guitarra 1(Palmute)
Me Siento Tan Cerca....
|---------------------------------------------|
|---------------------------------------------|
|-xx4xx444xx4xx444xx4xx444xx4xx444------------|
|-xx1xx111xx2xx222xx2xx222xx1xx111------------|
|-xx2xx222xx4xx444xx0xx000xx2xx222------------|
|---------------------------------------------|

Guitarra 2
|----------------------------------------------------------------|
|----------------------------------------------------------------|
|---8-9-8-----9--11-13--6-6-9------------------------------------|
|-99-----1111-11--11--77-7------(2a ves --11--- Se Deja Sonar)---|  X2
|----------------------------------------------------------------|
|----------------------------------------------------------------|

Guitarra 1 (Acustica)
Ayuda....
|---------------------------------------------|
|---------------------------------------------|
|---4---4--4---4--4---4--4---4----------------|
|--1---1--2---2--2---2--1---1-----------------|x 5
|-2---2--4---4--0---0--2---2------------------|
|---------------------------------------------|
(En La Segunda Vez Entra La Guitarra 2)

Guitarra 2
|----7-54------------|
|--5-----------------|
|--------------------|  X 16
|--------------------|
|--------------------|
|--------------------|


Guitarra 1 (X = De Arriba a Abajo)
Miro al cielo donde estas....
|-------------------------------------------------------|
|-------------------------------------------------------|
|-4xxxx4xxxx4xx4xxxx4xxxx4xx4xxxx4xxxx4xx4xxxx4xxxx4xx--|
|-1xxxx1xxxx1xx2xxxx2xxxx2xx2xxxx2xxxx2xx1xxxx1xxxx1xx--|   x6
|-2xxxx2xxxx2xx4xxxx4xxxx4xx0xxxx0xxxx0xx2xxxx2xxxx2xx--|
|-------------------------------------------------------|

Guitarra 1 (Antes Del Coro)
|--------|
|--------|
|-44444--|
|-11111--|
|-22222--|
|--------|

Guitarra 1 Coro
 No Es Dificil...
|---------------------------------------------------------|
|---------------------------------------------------------|
|-4-44-4-444444-4-44-4-444444-4-44-4-444444-4-44-4-444444-|
|-2-22-2-222222-1-11-1-111111-2-22-2-222222-1-11-1-111111-|
|-0-00-0-000000-2-22-2-222222-4-44-4-444444-2-22-2-222222-|
|---------------------------------------------------------|

Guitarra 1
Todos Debemos Llegar...
|---------------------------------------------|
|---------------------------------------------|
|-4-44-4-444444-4-44-4-444444-4-44-4-444444---|
|-2-22-2-222222-2-22-2-222222-1-11-1-111111---|
|-0-00-0-000000-4-44-4-444444-2-22-2-222222---|
|---------------------------------------------|

Guitarra 2 Coro
No es dificil ...                     Todos debemos llegar...
|-----------------------------------------------------------------------------|
|-----------------------------------------------------------------------------|
|----4--------4--------4--------4--------4--------4--------4------------------|
|--2---2-2--1---2-2--2---2-2--1---1-1--2---2-2--2---2-2--1---1-1-1221-4-21/2--|
|-0-----0--2-----1--4-----4--2-----2--0-----0--4-----4--2-----2---------------|
|-----------------------------------------------------------------------------|

EL CORO SE TOCA 2 VECES

Guitarra 1
Ya la noche al mirar...
|-------------------------------------------------------|
|-------------------------------------------------------|
|-4xxxx4xxxx4xx4xxxx4xxxx4xx4xxxx4xxxx4xx4xxxx4xxxx4xx--|
|-1xxxx1xxxx1xx2xxxx2xxxx2xx2xxxx2xxxx2xx1xxxx1xxxx1xx--|   x4
|-2xxxx2xxxx2xx4xxxx4xxxx4xx0xxxx0xxxx0xx2xxxx2xxxx2xx--|
|-------------------------------------------------------|

Guitarra 1 (pre coro)
|---------|
|---------|
|-4-------|
|-1--(Se Deja Sonar )
|-2-------|
|---------|

Guitarra 1 Coro
 No Es Dificil...
|---------------------------------------------------------|
|---------------------------------------------------------|
|-4-44-4-444444-4-44-4-444444-4-44-4-444444-4-44-4-444444-|
|-2-22-2-222222-1-11-1-111111-2-22-2-222222-1-11-1-111111-|
|-0-00-0-000000-2-22-2-222222-4-44-4-444444-2-22-2-222222-|
|---------------------------------------------------------|

Guitarra 1
Todos Debemos Llegar...
|---------------------------------------------|
|---------------------------------------------|
|-4-44-4-444444-4-44-4-444444-4-44-4-444444---|
|-2-22-2-222222-2-22-2-222222-1-11-1-111111---|
|-0-00-0-000000-4-44-4-444444-2-22-2-222222---|
|---------------------------------------------|

Guitarra 2 Coro
No es dificil ...                     Todos debemos llegar...
|-----------------------------------------------------------------------------|
|-----------------------------------------------------------------------------|
|----4--------4--------4--------4--------4--------4--------4------------------|
|--2---2-2--1---2-2--2---2-2--1---1-1--2---2-2--2---2-2--1---1-1-1221-4-21/2--|
|-0-----0--2-----1--4-----4--2-----2--0-----0--4-----4--2-----2---------------|
|-----------------------------------------------------------------------------|

EL CORO SE TOCA 2 VECES

Guitarra 2 (Punteo Despues del coro)
|------------------------------------------------|
|--------12--------------12-10-99-10-9------10-9-|
|-9-11-9----11--99-11-9---------------11-9------|
|------------------------------------------------|
|------------------------------------------------|
|------------------------------------------------|

|------------------12-11----12-11-----------------------|
|------------9--12-------12-------12-12/15--------------|
|-11-99-11-9-------------------------------9-8---9-8---|
|-----------------------------------------------9----9-|
|-------------------------------------------------------|
|-------------------------------------------------------|

Guitarra 1
Y aunque yo lo se...
|-------------------------------------------------------|
|-------------------------------------------------------|
|-4xxxx4xxxx4xx4xxxx4xxxx4xx4xxxx4xxxx4xx4xxxx4xxxx4xx--|
|-1xxxx1xxxx1xx2xxxx2xxxx2xx2xxxx2xxxx2xx1xxxx1xxxx1xx--|   x4
|-2xxxx2xxxx2xx4xxxx4xxxx4xx0xxxx0xxxx0xx2xxxx2xxxx2xx--|
|-------------------------------------------------------|

Asì hasta el final
|----------------|
|----------------|
|-4--------------|
|-1--(Se deja sonar)
|-2--------------|
|----------------|
Suggest correction
Creating personal tab
Creating personal tab
You can edit any tab online and save it as your Personal.

You can edit, replace or remove any tab part or add personal notes – all changes will be seen only by you.

Personal tabs can be accessed anytime from any device, even offline.
Learn more »
Give kudos to tab author, rate the tab!
1 2 3 4 5
comments
print report bad tab
guest
Wanna post a correction for this tab? Suggest correction