Oops, an error
Loading. Please wait.

Solo Llorar chords

version 2
version 2

Whole song

by Fakie
18 views 3 this week
no commentswrite comment
1 2 3 4 5
3 more votes to show rating
add to favorites
×
Save as Personal and add changes to this tab that will be seen only by you. Learn more ›
×
You can save this tab as Personal to edit and correct it or add notes. All changes will be seen only by you. Learn more »
launch autoscroll
font size
0
reset
transpose
0
reset
simplify chords
display chords
guitar tuner
edit
Autoscroll
slow
fast
+/-
esc
set tempo
stop
Strumming
There is no strumming pattern for this song yet. and get +5 IQ
INTRO LENTA: E5-G#5-A5-B5 (X2)

INTRO RAPIDA: E5-G#5-A5-B5 (X2)


E5                 G#5
No me digas que me amas,
      A5         B5            E5
Porque yo se que tu nunca lo harás
                     G#5
Y si lo haces no me importa,
      A5          B5
Tú hiciste esas cosas
             C#5          A5
Sin ver las causas de tus actos
        E5               F#5 / E5 / D#5
Que no fueron buenos para mí
B5       C#5        A5
Lo que salió de tu boca
    E5         F#5 / E5 / D#5
No, no va a volver
          C#5           B5
No hables mas, no lograras
        A5         B5
No hay nada que hacer
        C#5        B5
No hay nada que decir
        A5          B5         C#5
No hay nada que pensar, solo llorar


 (Solo llorar...)
          C#5               A5
G|-------------------------------------
D|--------11----------------7----------
A|--------11----9-11-12--12/7--6-7-9---
E|--------9-----------------5----------


     C#5               A5          B5
G|--------------------------------------
D|----11----------------7----------9-----
A|----11----9-11-12--12/7--6-7-9---9-----
E|----9-----------------5----------7-----


E5                 G#5
No me digas que me amas,
       A5            B5            E5    G#5-A5-B5
Aunque ruegues no contestare tus llamadas
             C#5          A5
Sin ver las causas de tus actos
        E5               F#5 / E5 / D#5
Que no fueron buenos para mí
B5       C#5        A5
Lo que salió de tu boca
    E5         F#5 / E5 / D#5
No, no va a volver
          C#5           B5
No hables mas, no lograras
        A5         B5
No hay nada que hacer
        C#5        B5
No hay nada que decir
        A5          B5         C#5
No hay nada que pensar, solo llorar


 (Solo llorar...)
          C#5               A5
G|-------------------------------------
D|--------11----------------7----------
A|--------11----9-11-12--12/7--6-7-9---
E|--------9-----------------5----------


     C#5               A5          B5              C#5
G|----------------------------------------------------
D|----11----------------7----------9---------------9--
A|----11----9-11-12--12/7--6-7-9---9--9-7-6-7-6----9--
E|----9-----------------5----------7------------7--7--


--------------------------O----------------------------
Un saludo pa` la 4 Marias..............kjahkjahkja

            
            
Suggest correction
Creating personal tab
Creating personal tab
You can edit any tab online and save it as your Personal.

You can edit, replace or remove any tab part or add personal notes – all changes will be seen only by you.

Personal tabs can be accessed anytime from any device, even offline.
Learn more »
Give kudos to tab author, rate the tab!
1 2 3 4 5
comments
print report bad tab
guest
Wanna post a correction for this tab? Suggest correction