Oops, an error
Loading. Please wait.

Ya Son Las Cuatro bass

version 2
version 2

Whole song

by Fakie
19 views 1 this week
no commentswrite comment
1 2 3 4 5
3 more votes to show rating
add to favorites
×
Save as Personal and add changes to this tab that will be seen only by you. Learn more ›
×
You can save this tab as Personal to edit and correct it or add notes. All changes will be seen only by you. Learn more »
launch autoscroll
font size
0
reset
guitar tuner
edit
Autoscroll
slow
fast
+/-
esc
set tempo
stop
G--------|
D--------|
A--------|
E-3--3-5-|

G--------------------------|--------------------------|--------------------------|
D--------------------------|--------------------------|--------------------------|
A-------------9-7-5--5-5-5-|-------------9-7-5--5-5-5-|-------------4--4-5--5-5--|
E-7--7-7-7-7---------------|-5--5-5-5-5---------------|-3--3-3-3-3---------------|

G--------------------------|--------------------------|--------------------------|
D--------------------------|--------------------------|--------------------------|
A-------------5--5-7--7-7--|-------------9-7-5--5-5-5-|-------------9-7-5--5-5-5-|
E-5--5-5-5-5---------------|-7--7-7-7-7---------------|-5--5-5-5-5---------------|

G--------------------------|--------------------------|--------------------------|
D--------------------------|--------------------------|--------------------------|
A-------------4--4-5--5-5--|-------------5--5-7--7-7--|-------------9-7-5--5-5-5-|
E-3--3-3-3-3---------------|-5--5-5-5-5---------------|-7--7-7-7-7---------------|

G--------------------------|--------------------------|--------------------------|
D--------------------------|--------------------------|--------------------------|
A-------------9-7-5--5-5-5-|-------------4--4-5--5-5--|-------------5--5-7--7-7--|
E-5--5-5-5-5---------------|-3--3-3-3-3---------------|-5--5-5-5-5---------------|

G--------------------------|--------------------------|--------------------------|
D--------------------------|--------------------------|--------------------------|
A-------------9-7-5--5-5-5-|-------------9-7-5--5-5-5-|-------------4--4-5--5-5--|
E-7--7-7-7-7---------------|-5--5-5-5-5---------------|-3--3-3-3-3---------------|

G-------------------------|
D-------------------------|
A-------------5--5-7--7-7-|
E-5--5-5-5-5--------------|

G--------|---------------------------------|---------------------------------|
D--------|---------------------------------|---------------------------------|
A--------|-5--5-5-5-5-5--5-5-5-5-5-5-5-5-5-|---------------------------------|
E-7-7--5-|---------------------------------|-5--5-5-5-5-5--5-5-5-5-5-5-5-5-5-|

G------------|--------------|------------|--------------|
D------------|--------------|------------|--------------|
A------------|--------------|------------|--------------|
E-0--0-0-0-0-|-3--3-3-3-3-3-|-0--0-0-0-0-|-5--5-5-5-5-5-|

G---------------------------------|---------------------------------|
D---------------------------------|---------------------------------|
A-5--5-5-5-5-5--5-5-5-5-5-5-5-5-5-|---------------------------------|
E---------------------------------|-5--5-5-5-5-5--5-5-5-5-5-5-5-5-5-|

G------------|--------------|------------|--------------|
D------------|--------------|------------|--------------|
A------------|--------------|------------|--------------|
E-0--0-0-0-0-|-3--3-3-3-3-3-|-0--0-0-0-0-|-5--5-5-5-5-5-|

G--------------------------|--------------------------|--------------------------|
D--------------------------|--------------------------|--------------------------|
A-------------9-7-5--5-5-5-|-------------9-7-5--5-5-5-|-------------4--4-5--5-5--|
E-7--7-7-7-7---------------|-5--5-5-5-5---------------|-3--3-3-3-3---------------|

G--------------------------|--------------------------|--------------------------|
D--------------------------|--------------------------|--------------------------|
A-------------5--5-7--7-7--|-------------9-7-5--5-5-5-|-------------9-7-5--5-5-5-|
E-5--5-5-5-5---------------|-7--7-7-7-7---------------|-5--5-5-5-5---------------|

G--------------------------|--------------------------|--------------------------|
D--------------------------|--------------------------|--------------------------|
A-------------4--4-5--5-5--|-------------5--5-7--7-7--|-------------9-7-5--5-5-5-|
E-3--3-3-3-3---------------|-5--5-5-5-5---------------|-7--7-7-7-7---------------|

G--------------------------|--------------------------|--------------------------|
D--------------------------|--------------------------|--------------------------|
A-------------9-7-5--5-5-5-|-------------4--4-5--5-5--|-------------5--5-7--7-7--|
E-5--5-5-5-5---------------|-3--3-3-3-3---------------|-5--5-5-5-5---------------|

G--------|---------------------------------|---------------------------------|
D--------|---------------------------------|---------------------------------|
A--------|-5--5-5-5-5-5--5-5-5-5-5-5-5-5-5-|---------------------------------|
E-7-7--5-|---------------------------------|-5--5-5-5-5-5--5-5-5-5-5-5-5-5-5-|

G------------|--------------|------------|--------------|
D------------|--------------|------------|--------------|
A------------|--------------|------------|--------------|
E-0--0-0-0-0-|-3--3-3-3-3-3-|-0--0-0-0-0-|-5--5-5-5-5-5-|

G---------------------------------|---------------------------------|
D---------------------------------|---------------------------------|
A-5--5-5-5-5-5--5-5-5-5-5-5-5-5-5-|---------------------------------|
E---------------------------------|-5--5-5-5-5-5--5-5-5-5-5-5-5-5-5-|

G------------|--------------|------------|--------------|
D------------|--------------|------------|--------------|
A------------|--------------|------------|--------------|
E-0--0-0-0-0-|-3--3-3-3-3-3-|-0--0-0-0-0-|-5--5-5-5-5-5-|

G--------------------|--------------------------------|--------------------------------|
D--------------------|--------------------------------|--------------------------------|
A------------4-4-5-5-|--------------------------------|-5--5-5-5-5-5-5-5-5-5-5-5-5-5-5-|
E-7--7-7-7-7---------|-5--5-5-5-5-5-5-5-5-5-5-5-5-5-5-|--------------------------------|

G--------------------------------|--------------------|--------------------------------|
D--------------------------------|--------------------|--------------------------------|
A--------------------------------|------------4-4-5-5-|--------------------------------|
E-3--3-3-3-3-3-3-3-3-3-3-3-3-3-3-|-7--7-7-7-7---------|-5--5-5-5-5-5-5-5-5-5-5-5-5-5-5-|

G--------------------------------|--------------------------------|--------------------|
D--------------------------------|--------------------------------|--------------------|
A-5--5-5-5-5-5-5-5-5-5-5-5-5-5-5-|--------------------------------|------------4-4-5-5-|
E--------------------------------|-3--3-3-3-3-3-3-3-3-3-3-3-3-3-3-|-7--7-7-7-7---------|

G--------------------------------|--------------------------------|
D--------------------------------|--------------------------------|
A--------------------------------|-5--5-5-5-5-5-5-5-5-5-5-5-5-5-5-|
E-5--5-5-5-5-5-5-5-5-5-5-5-5-5-5-|--------------------------------|

G--------------------------------|--------------------|--------------------------------|
D--------------------------------|--------------------|--------------------------------|
A--------------------------------|------------4-4-5-5-|--------------------------------|
E-3--3-3-3-3-3-3-3-3-3-3-3-3-3-3-|-7--7-7-7-7---------|-5--5-5-5-5-5-5-5-5-5-5-5-5-5-5-|

G--------------------------------|--------------------------------|
D--------------------------------|--------------------------------|
A-5--5-5-5-5-5-5-5-5-5-5-5-5-5-5-|--------------------------------|
E--------------------------------|-3--3-3-3-3-3-3-3-3-3-3-3-3-3-3-|

G--------------------------------|--------------------------------|
D--------------------------------|--------------------------------|
A--------------------------------|--------------------------------|
E-7--7-7-7-7-7-7-7-7-7-7-7-7-7-7-|-5--5-5-5-5-5-5-5-5-5-5-5-5-5-5-|

G--------------------------------|--------------------------------|
D--------------------------------|--------------------------------|
A-5--5-5-5-5-5-5-5-5-5-5-5-5-5-5-|--------------------------------|
E--------------------------------|-3--3-3-3-3-3-3-3-3-3-3-3-3-3-3-|

G--------------------------------|--------------------------------|
D--------------------------------|--------------------------------|
A--------------------------------|--------------------------------|
E-7--7-7-7-7-7-7-7-7-7-7-7-7-7-7-|-5--5-5-5-5-5-5-5-5-5-5-5-5-5-5-|

G--------------------------------|--------------------------------|
D--------------------------------|--------------------------------|
A-5--5-5-5-5-5-5-5-5-5-5-5-5-5-5-|--------------------------------|
E--------------------------------|-3--3-3-3-3-3-3-3-3-3-3-3-3-3-3-|

G--------------------------------|--------------------------------|
D--------------------------------|--------------------------------|
A--------------------------------|--------------------------------|
E-7--7-7-7-7-7-7-7-7-7-7-7-7-7-7-|-5--5-5-5-5-5-5-5-5-5-5-5-5-5-5-|

G--------------------------------|--------------------------------|
D--------------------------------|--------------------------------|
A-5--5-5-5-5-5-5-5-5-5-5-5-5-5-5-|--------------------------------|
E--------------------------------|-3--3-3-3-3-3-3-3-3-3-3-3-3-3-3-|

G--------------------------------|--------------------------------|
D--------------------------------|--------------------------------|
A--------------------------------|--------------------------------|
E-7--7-7-7-7-7-7-7-7-7-7-7-7-7-7-|-5--5-5-5-5-5-5-5-5-5-5-5-5-5-5-|

G--------------------------------|--------------------------------|
D--------------------------------|--------------------------------|
A-5--5-5-5-5-5-5-5-5-5-5-5-5-5-5-|--------------------------------|
E--------------------------------|-3--3-3-3-3-3-3-3-3-3-3-3-3-3-3-|

G-------------------|
D-------------------|
A-------------------|
E-7---5-5-7---5-5-0-|

            
            
Suggest correction
Creating personal tab
Creating personal tab
You can edit any tab online and save it as your Personal.

You can edit, replace or remove any tab part or add personal notes – all changes will be seen only by you.

Personal tabs can be accessed anytime from any device, even offline.
Learn more »
Give kudos to tab author, rate the tab!
1 2 3 4 5
comments
print report bad tab
guest
Wanna post a correction for this tab? Suggest correction