Oops, an error
Loading. Please wait.

Hum Jee Lenge Tab

22,706 views 90 this week
1 commentread comment
1 2 3 4 5
1 last vote to show rating
add to favorites
launch autoscroll
font size
0
reset
how to read this tab
guitar tuner
Autoscroll
slow
fast
+/-
esc
set tempo
stop
Help us to improve Ultimate-Guitar.com Take our survey!
×
Author
Difficulty
novice
[Intro riff]
e|-----------------------------------------------------------------|
B|-----------------------------------------------------------------|
G|-----------------------------------------------------------------|
D|-----------------------------------------------------------------|
A|-----------------------0h2p0-----------------0-0-2-0-------------|
E|--0-----------2-3-3-------------3p2--3s5-------------------3-2---|

e|------------------------------------------------------------------|
B|------------------------------------------------------------------|
G|------------------------------------------------------------------|
D|------------------------------------------------------------------|
A|----------------------0h2p0---------------2-2-3-0p2---------------|
E|--0---------2--3-3-------------3p2--3s5------------------3-2-0----|

[CHORDS]
Em    D     C         D
Ho... Ho ho ho aa aa...

Em
Yeh mere dil ka jaana
D
Ek aakhri faisla hai
C
Ab saath hoga na tera
D
Yeh dard ki intehaan hai
Em
Tha pyar tera toh jhootha
D
Sacha magar yeh Khuda hai
C
Tanhaiyon me hoon roya
D
Tab jaake mujhko mila hai
Em
Duniya ke rishton me toh
D
Yeh hota hi raha hai
C
Laila aur Majnu bhi toh
D
Ek doosre se juda hain

Repeat [Intro Riff]

Em          D
Tanhaai ka ashq mitayen yahaan
C                    D
Barbaddiyan bhi sabko jaane mili hain kahaan
Em          D
Tere bina hum jee lenge
C            D
Phir kyun rahe koi gile
Em          D
Tere bina hum seh lenge
C           D
Woh zakhm jo tujh se mile..
Em
aa ha haan!

[Solo]
e|----------------------------------------------------------|
B|----------------------------------------------------------|
G|----------------------------------------------------------|
D|--2--4s5-4--0-0h2-0---------------------------------------|
A|----------------------3p2-5-3-2---2-----------------------|
E|--------------------------------3----0--------------------|

e|-----------------------------------------------------------|
B|-----------------------------------------------------------|
G|-------------7-5---5p4-----5p4-----------------------------|
D|---2s4-5-5-4------------7------7---5p4------4--------------|
A|---------------------------------------5-7-----5s7---------|
E|-----------------------------------------------------------|

Em     D       C     D
Hai rut nayi, mausam naya
Em      D      C      D
Iss daur me kaisi wafaa
Em      D    C     D
Bhar jayegi teri kami
Em      D     C     D
Mil jayega ab kuch naya
Em
Haan khush hain ab hum toh
D
Tujhse kahaan hum khafa hai
C                        D
Tune chuna hai woh rasta tere liye jo bana hai
Em
Ehsaan tera main maanu
D
Tanha mujhe jo kiya hai
C
Jo pyar tera hai khoya
D
Lagta hai khud se mila main

Em           D
Kisko mila sang umr bhar ka yahaan
C                D
Woh hi rulaye dil chahe jisko sada

Em          D
Tere bina hum jee lenge
C            D
Phir kyun rahe koi gile
Em          D
Tere bina hum seh lenge
C           D
Woh zakhm jo tujh se mile..(2X)

************************************

| h  Hammer-on
| p  Pull-off
| s  Slide

************************************

maybe the tabs are incorrect ...coz i've guessed them...for any inquiries or mistakes 
mai me at
nhaisaresparsh132@gmail.com
Suggest correction
Give kudos to tab author, rate the tab!
1 2 3 4 5
comments
print report bad tab
1 comment total.
0 reply
mrinalsadhukhan 10 Nov 11, 2015 01:56 AM

please add strumming pattern...

guest
You may want to rate the tab now too:
select rating
Wanna post a correction for this tab? Suggest correction