Oops, an error
Loading. Please wait.

Der Kommissar intro tab

version 1
version 1

Intro

Interactive

by Falco
25,436 views 51 this week
1 commentread comment
1 2 3 4 5
x 19
add to favorites
×
Save as Personal and add changes to this tab that will be seen only by you. Learn more ›
×
You can save this tab as Personal to edit and correct it or add notes. All changes will be seen only by you. Learn more »
launch autoscroll
font size
0
reset
how to read this tab
guitar tuner
backing track
0:00
0:00
edit
Autoscroll
slow
fast
+/-
esc
set tempo
stop
Author
This is the intro from falcos kommissar. it´s not very long but you´ll recognize it.

e|-8-0-5-0-3---0-3-|   this part you repeat six times...
B|-----------3-----|
G|-----------------|
D|-----------------|
A|-----------------|
E|-----------------|

...and then you play this:

e|----------------------------------------------------|
B|-----------------------0----------------------------|
G|-2-2-2---2-0-------------2-0----2-2-2---2-0--------.|
D|-------2-----------0-2----------------2-------0-1-2.|
A|----------------------------------------------------|
E|----------------------------------------------------|

            
            
Suggest correction
Creating personal tab
Creating personal tab
You can edit any tab online and save it as your Personal.

You can edit, replace or remove any tab part or add personal notes – all changes will be seen only by you.

Personal tabs can be accessed anytime from any device, even offline.
Learn more »
comments
print report bad tab
1 comment total.
0 reply
deethanyter 10 Jan 12, 2017 12:43 AM

i think there should be a open g sting on the 2nd part of the "...and then you play this:"
[|] right here
[|]
e|----------------------[|]-----------------------------|
B|----------------------[V]0----------------------------|
G|-2-2-2---2-0-----------0---2-0----2-2-2---2-0---------|
D|-------2-----------0-2------------------2-------0-1-2-|
A|------------------------------------------------------|
E|------------------------------------------------------|

guest
You may want to rate the tab now too:
select rating
Wanna post a correction for this tab? Suggest correction