Oops, an error
Loading. Please wait.

20 Dollar Nose Bleed Bass Tab

version 1
version 1

Whole song

Interactive

20,040 views 18 this week
1 commentread comment
1 2 3 4 5
x 13
add to favorites
launch autoscroll
font size
0
reset
guitar tuner
×
Best way to learn
"20 Dollar Nose Bleed"
Autoscroll
slow
fast
+/-
esc
set tempo
stop
[Intro/Verse 1]
(after piano) 
"Have you ever wanted to dissappear.."
G|----------------------------------------------------|
D|----------------------------------------------------|
A|-----------------------------------------6--6--6--6-|
E|-12/4--4--8--8--1--1--4--4-5-6--6--6--6-------------|

"Where will I be when i wake up.."
G|-----------------------------------------------------|
D|-----------------------------------------------------|
A|--------------------------------------6--6--6--6h8p6-|
E|-4--4--8--8--1--1--4--4-5-6--6--6--6-----------------|

[Pre-Chorus]
(In the song, the bass sounds an octave higher, so play it an octave until the 
fret on the A string.)

"Permanent Jet Lag.."
G|----------------------------------------------------------------|
D|----------------------------------------------------------------|
A|------------------------------------------------6-6-6-6-6-6h8p6-|
E|-4-4-4-4-3-3-3-3-1-1-1-1-4-4-4-4/6-6-6-6-6-6-6-6----------------|

"I'm a stray dog sick.."
G|------------------------------------------------------------|
D|------------------------------------------------------------|
A|------------------------------------------------6-6-6-6-6-6-|
E|-4-4-4-4-3-3-3-3-1-1-1-1-4-4-4-4/6-6-6-6-6-6-6-6------------|

[Chorus] 
"Call Me, Benzedrine"
G|-------------------------------------------|
D|-------------------------------------------|
A|---------------------4444------66-44-33-11-|
E|-4444-8888-1111-4444------4444-------------|

"Call Me, Benzedrine" (Higher Key)
G|-----------------------|---------------------------|
D|-----------------------|---------------------------|
A|1/8888-6666-4444-1111/8|8--1-3-4---------6-4--88-6-|
E|-----------------------|--------4-3-1--1-----------|

G|------------------------------|
D|------------------------------|
A|8--1-3-4---------6-4--88-6----|
E|--------4-3-1--1-------------4|
 
[Verse 2] 
"It feels like 14 karots.."
G|----------------------------------------------------|
D|----------------------------------------------------|
A|-----------------------------------------6--6--6--6-|
E|-12/4--4--8--8--1--1--4--4-5-6--6--6--6-------------|

"Goes to the desert.."
G|-----------------------------------------------------|
D|-----------------------------------------------------|
A|--------------------------------------6--6--6--6h8p6-|
E|-4--4--8--8--1--1--4--4-5-6--6--6--6-----------------|
 
[Pre-Chorus] 
"Permanent Jet Lag.."
G|----------------------------------------------------------------|
D|----------------------------------------------------------------|
A|------------------------------------------------6-6-6-6-6-6h8p6-|
E|-4-4-4-4-3-3-3-3-1-1-1-1-4-4-4-4/6-6-6-6-6-6-6-6----------------|

"I'm a stray dog sick.."
G|------------------------------------------------------------|
D|------------------------------------------------------------|
A|-------------------------------------------------6----------|
E|-4-4-4-4-3-3-3-3-1-1-1-1-4-4-4-4/6-6-6-6-6-6-6-6------------|

[Chorus] 
"Call Me, Benzedrine"
G|-------------------------------------------|
D|-------------------------------------------|
A|---------------------4444------66-44-33-11-|
E|-4444-8888-1111-4444------4444-------------|

"Call Me, Benzedrine" (Higher Key)
G|-----------------------|---------------------------|
D|-----------------------|---------------------------|
A|1/8888-6666-4444-1111/8|8--1-3-4---------6-4--88-6-|
E|-----------------------|--------4-3-1--1-----------|

G|------------------------------|
D|------------------------------|
A|8--1-3-4---------6-4--88-6----|
E|--------4-3-1--1-------------4|
 
[Bridge] 
After "Beb beb beb beb Benzedrine"
G|---------|-------|
D|---------|-------|
A|4--6--8--|-4-4-4-|
E|---------|-------|

[Final Verse] 
"Only One more feeling.."
G|------------------------------------------|
D|------------------------------------------|
A|-------------------------------6--6--6--6-|
E|-4--4-888-1--1--444-5-6--6-666------------|

End With Chorus.

************************************

| /  Slide up
| h  Hammer-on
| p  Pull-off

************************************ 
Suggest correction
comments
print report bad tab
1 comment total.
0 reply
Peacemaker21 37 Oct 16, 2009 10:17 AM

Awesome tab dude, but, the only thing is, after the last chorus and before Pete starts talking, it should go like this:

G|------------|
D|------------|
A|------------|
E|4--4-8--8-1-|

And that's the only thing wrong with this tab

guest
You may want to rate the tab now too:
select rating
Wanna post a correction for this tab? Suggest correction