Oops, an error
Loading. Please wait.

7 Minutes In Heaven Atavan Halen Tab

version 1
version 1

Whole song

Interactive

68,315 views 33 this week
21 commentsread comments
1 2 3 4 5
x 40
add to favorites
launch autoscroll
font size
0
reset
how to read this tab
guitar tuner
Autoscroll
slow
fast
+/-
esc
set tempo
stop
Help us to improve Ultimate-Guitar.com Take our survey!
×
Author
Artist: Fall Out Boy    
Song: 7 Minutes In Heaven (Atavan Halen)
Tuning: EADGBe 

 
[Intro Pt. 1]

e|----------------------------------------------------|
B|----------------------------------------------------|
G|-9-99-8-88-6-66-9-99-8-88-6-------------------------|
D|-9-99-9-99-9-99-9-99-9-99-9-------------------------|
A|----------------------------------------------------|
E|----------------------------------------------------|(x2)
     **   **   **   **   **


[Intro Pt. 2 Lead]

e|----------------------------------------------------|
B|----------------------------------------------------|
G|-1111111--88--6666--44--1111111--8888--66--6/8\6----|
D|-x-x-x-x--xx--xxxx--xx--x-x-x-x--xxxx--xx--x/x\x----|
A|-9-9-9-9--66--4444--22--9-9-9-9--6666--44--4/6\4----|
E|----------------------------------------------------|(x2)


[Intro Pt. 2 Rhythm]

e|----------------------------------------------------|
B|----------------------------------------------------|
G|--------------44------------------------------------|
D|-6666-22-4444-44-6666-2222-44444444-----------------|
A|-6666-22-4444-22-6666-2222-44444444-----------------|
E|-4444-00-2222----4444-0000-22222222-----------------|(x2)


[Verse 1 Rhythm] 

e|----------------------------------------------------|
B|----------------------------------------------------|
G|------------44-4------------------44-4--------------|
D|-66-6-------44-4-x4----22-2-------44-4-x4-----------|
A|-66-6-x4----22-2-------22-2-x4----22-2--------------|
E|-44-4------------------00-0-------------------------|(x2)              
   **         **         **         **


[Verse 1 Lead]

e|----------------------------------------------------|
B|----------------------------------------------------|
G|-9-99-8-88-6-66-9-99-8-88-6-------------------------|
D|-9-99-9-99-9-99-9-99-9-99-9-------------------------|
A|----------------------------------------------------|
E|----------------------------------------------------|
     **   **   **   **   **


[Pre-Chorus]

e|----------------------------------------------------|
B|----------------------------------------------------|
G|--------------44------------------------------------|
D|-6666-22-4444-44-6666-2222-44444444-----------------|
A|-6666-22-4444-22-6666-2222-44444444-----------------|
E|-4444-00-2222----4444-0000-22222222-----------------|(x2)


[Chorus]

e|----------------------------------------------------|
B|----------------------------------------------------|
G|-44-------------------------------------------------|
D|-44-4-22-4-66-4-22-4--------------------------------|
A|-22-4-22-4-66-4-22-4--------------------------------|
E|----2-00-2-44-2-00-2--------------------------------|(x4)


[Verse 2 Lead]

e|----------------------------------------------------|
B|----------------------------------------------------|
G|-9-99-8-88-6-66-9-99-8-88-6-------------------------|
D|-9-99-9-99-9-99-9-99-9-99-9-------------------------|
A|----------------------------------------------------|
E|----------------------------------------------------|(x8)
     **   **   **   **   **


[Verse 2 Rhythm] 

"I'm having another episode..."
e|----------------------------------------------------|
B|----------------------------------------------------|
G|------------44-4------------------4444444444444444--|
D|-66-6-------44-4-x4----22-2-------4444444444444444--|
A|-66-6-x4----22-2-------22-2-x4----2222222222222222--|
E|-44-4------------------00-0-------------------------| 
   **         **         **         ****************      


[Bridge Rhythm] 

"Da Da Da..."
e|----------------------------------------------------|
B|----------------------------------------------------|
G|----------6-----------------4-----------------------|
D|-6--------6-x16----2--------4-x16-------------------|
A|-6-x16----4--------2-x16----2-----------------------|
E|-4-----------------0--------------------------------|(x2)             
   *        *        *        * 


[Bridge Lead]

e|----------------------------------------------------|
B|----------------------------------------------------|
G|-9-99-8-88-6-66-9-99-8-88-6-------------------------|
D|-9-99-9-99-9-99-9-99-9-99-9-------------------------|
A|----------------------------------------------------|
E|----------------------------------------------------|(x4)
     **   **   **   **   ** 


[Bridge Cont.] 

"I keep telling..."
e|----------------------------------------------------|
B|----------------------------------------------------|
G|----------------------------------------------------|
D|-66----44----6666-2222-4444-------------------------|
A|-66----44----6666-2222-4444-------------------------|
E|-44----22----4444-0000-2222-------------------------|


[Solo]

e|----------------------------------------------------|
B|----------------------------------------------------|
G|--/6h8-6---6h8-6---6h8-6-----6-6h8-6---6h8-6~~------|
D|---------9-------9-------9-----------9--------------|
A|---------------------------9------------------------|
E|----------------------------------------------------|(x2)


[Ending] 

(Acoustic)
e|----------------------------------------------------|
B|----------------------------------------------------|
G|-44-------------------44----------------------------|
D|-44-4-22-4-66-4-22-4--44-4-22-4-66-4-2--------------|
A|-22-4-22-4-66-4-22-4--22-4-22-4-66-4-2--------------|
E|----2-00-2-44-2-00-2-----2-00-2-44-2-0--------------|


Order:

Intro pt. 1 
Intro pt. 2 
[Verse 1]
[Pre-Chorus]
[Chorus]
Intro pt. 2
[Verse 2]
[Pre-Chorus]
[Chorus]
[Bridge]
Bridge Cont.
[Pre-Chorus]
Pre-Chorus w/ Solo
Ending



************************************

| /  Slide up
| \  Slide down
| x  Dead note
| h  Hammer-on
| ~  Vibrato
| *  palm mute

************************************
Suggest correction
comments
print report bad tab
21 comments total. Showing first comments.
+1 reply
wishiwasstump 50 Jul 12, 2005 12:00 AM

the solo isn't quite right, it goes something like this:

e ------------------------------------------------------
b ------------------------------------------------------
g -------6-8-6--6-8-6---6-8-6-----------6-8-6---6-8-6~~- x2
d /6-6-9-------9------9-------9-6---6-9-------9---------
A ------------------------------------------------------
E ------------------------------------------------------

+1 reply
SaintJimmy105 341 Nov 29, 2005 07:19 PM

There are a couple of things you missed in there. Real minor stuff like slides and stuff. Other than that its pretty much perfect. Nice job.

0 reply
Kidd_Vicious696 30 Mar 25, 2006 10:44 PM

The solo sounds fine to me, good job.

guest
You may want to rate the tab now too:
select rating
Wanna post a correction for this tab? Suggest correction