Oops, an error
Loading. Please wait.

A Little Less Sixteen Candles A Little More Touch Me Tab

version 2
version 2
4,566 views 6 this week
6 commentsread comments
1 2 3 4 5
accurate
x 6
add to favorites
launch autoscroll
font size
0
reset
how to read this tab
guitar tuner
Autoscroll
slow
fast
+/-
esc
set tempo
stop
Help us to improve Ultimate-Guitar.com Take our survey!
×
Difficulty
Tuning
novice
D A D G B E
Fall Out Boy - A Little Less Sixteen Candles, A Little More Touch Me
From Under the Cork Tree

awesome song right here... and fairly simple to play. i tabbed the song in order,
so just read through the whole tab. no shenanigans.

key:

 / - slide up
 \ - slide down
 . - palm-mute
 x - mute note
 ~ - let it ring

that's all you need to know for this tab
 
----------------------------------------------------------------------------
Guitar 1
----------------------------------------------------------------------------

intro

E|------|-----------------------------------------------------------------|
B|------|-----------------------------------------------------------------|
G|------|-----------------------------------------------------------------|
D|--5\--|--0-0-4-5-5-5-5-5--5-5-7-9-9-9-9-9--4-4-4-5-5-5-5-5--5--5--5--5--|
A|--5\--|--0-0-4-5-5-5-5-5--5-5-7-9-9-9-9-9--4-4-4-5-5-5-5-5--5--5--5--5--| (x1)
D|--5\--|--0-0-4-5-5-5-5-5--5-5-7-9-9-9-9-9--4-4-4-5-5-5-5-5--5--5--5--5--|

E|-----------------------------------------------------------------|
B|-----------------------------------------------------------------|
G|-----------------------------------------------------------------|
D|--0-0-4-5-5-5-5-5--5-5-7-9-9-9-9-9--4-4-4-5-5-5-5-5--5--5--5--5--|
A|--0-0-4-5-5-5-5-5--5-5-7-9-9-9-9-9--4-4-4-5-5-5-5-5--5--5--5--5--| (x1)
D|--0-0-4-5-5-5-5-5--5-5-7-9-9-9-9-9--4-4-4-5-5-5-5-5--5--5--5--5--|

verse

E|----------------------------------------------------------------------|
B|----------------------------------------------------------------------|
G|--7-7-7-7-7-7-7-7--9-9-9-9-9-9-9--------------------------------------|
D|--7-7-7-7-7-7-7-7--9-9-9-9-9-9-9-0--9-9-9-9-9-9-9-0--5-5-5-5-5-5-5-5--|
A|--5-5-5-5-5-5-5-5--7-7-7-7-7-7-7-0--9-9-9-9-9-9-9-0--5-5-5-5-5-5-5-5--| (x3)
D|---------------------------------0--9-9-9-9-9-9-9-0--5-5-5-5-5-5-5-5--|
*all palm-muted

pre-chorus

E|-----------------------------------------------|
B|-----------------------------------------------|
G|-----------------------------------------------|
D|--5-5-5-5/9-9-9-9--0-5-5-5-5--5-5-5-5-5-5-5-5--|
A|--5-5-5-5/9-9-9-9--0-5-5-5-5--5-5-5-5-5-5-5-5--| (x1)
D|--5-5-5-5/9-9-9-9--0-5-5-5-5--5-5-5-5-5-5-5-5--|
                                  . . . 

chorus

E|--------------------------------------------------------------|
B|--------------------------------------------------------------|
G|--------------------------------------------------------------|
D|--0-0-4-5-5-5-5-5--5-5-7-9-9-9-9-9--4-4-4-5-5-5-5-5--9--7--5--|
A|--0-0-4-5-5-5-5-5--5-5-7-9-9-9-9-9--4-4-4-5-5-5-5-5--9--7--5--| (x1)
D|--0-0-4-5-5-5-5-5--5-5-7-9-9-9-9-9--4-4-4-5-5-5-5-5--9--7--5--|

E|--------------------------------------------------------|
B|--------------------------------------------------------|
G|--------------------------------------------------------|
D|--0-0-4-5-5-5-5-5--5-5-7-9-9-9-9-9--4-4-4-5-5-5-5-5--5--|
A|--0-0-4-5-5-5-5-5--5-5-7-9-9-9-9-9--4-4-4-5-5-5-5-5--5--| (x1)
D|--0-0-4-5-5-5-5-5--5-5-7-9-9-9-9-9--4-4-4-5-5-5-5-5--5--|

post-chorus

E|-----------------------------------------------------------------|
B|-----------------------------------------------------------------|
G|-----------------------------------------------------------------|
D|--0-0-4-5-5-5-5-5--5-5-7-9-9-9-9-9--4-4-4-5-5-5-5-5--5--5--5--5--|
A|--0-0-4-5-5-5-5-5--5-5-7-9-9-9-9-9--4-4-4-5-5-5-5-5--5--5--5--5--| (x1)
D|--0-0-4-5-5-5-5-5--5-5-7-9-9-9-9-9--4-4-4-5-5-5-5-5--5--5--5--5--|

verse

E|----------------------------------------------------------------------|
B|----------------------------------------------------------------------|
G|--7-7-7-7-7-7-7-7--9-9-9-9-9-9-9--------------------------------------|
D|--7-7-7-7-7-7-7-7--9-9-9-9-9-9-9-0--9-9-9-9-9-9-9-0--5-5-5-5-5-5-5-5--|
A|--5-5-5-5-5-5-5-5--7-7-7-7-7-7-7-0--9-9-9-9-9-9-9-0--5-5-5-5-5-5-5-5--| (x2)
D|---------------------------------0--9-9-9-9-9-9-9-0--5-5-5-5-5-5-5-5--|
*all palm-muted

E|--------------------------------------------------------|
B|--------------------------------------------------------|
G|--------------------------------------------------------|
D|--0-0--0-0-0--0-2-2--2-2-2--2-4-4--4-4-4--4-5-5--5-5-5--|
A|--0-0--0-0-0--0-2-2--2-2-2--2-4-4--4-4-4--4-5-5--5-5-5--| (x1)
D|--0-0--0-0-0--0-2-2--2-2-2--2-4-4--4-4-4--4-5-5--5-5-5--|
*all lightly palm-muted

pre-chorus

E|--------------------------------------|
B|--------------------------------------|
G|--------------------------------------|
D|--5-5-5-5/9-9-9-9--0-5-5-5-5--5---5\--|
A|--5-5-5-5/9-9-9-9--0-5-5-5-5--5---5\--| (x1)
D|--5-5-5-5/9-9-9-9--0-5-5-5-5--5---5\--|

chorus

E|--------------------------------------------------------------|
B|--------------------------------------------------------------|
G|--------------------------------------------------------------|
D|--0-0-4-5-5-5-5-5--5-5-7-9-9-9-9-9--4-4-4-5-5-5-5-5--9--7--5--|
A|--0-0-4-5-5-5-5-5--5-5-7-9-9-9-9-9--4-4-4-5-5-5-5-5--9--7--5--| (x2)
D|--0-0-4-5-5-5-5-5--5-5-7-9-9-9-9-9--4-4-4-5-5-5-5-5--9--7--5--|

bridge

E|-----------------------------------------------|
B|-----------------------------------------------|
G|-----------------------------------------------|
D|--4-4-4---5-5-5--0~--2-2-2--2-2--7-7-7--5-5-5--|
A|--4-4-4---5-5-5--0~--2-2-2--2-2--7-7-7--5-5-5--| (x1)
D|--4-4-4---5-5-5--0~--2-2-2--2-2--7-7-7--5-5-5--|
    . . .   . . .      . . .  . .  . .    . . 

E|------------------------------------------------------|
B|------------------------------------------------------|
G|------------------------------------------------------|
D|--4-4-4--4-4--5-5-5--5-5\x--2-2-2--2-2--7-7-7--5-5-5--|
A|--4-4-4--4-4--5-5-5--5-5\x--2-2-2--2-2--7-7-7--5-5-5--| (x1)
D|--4-4-4--4-4--5-5-5--5-5\x--2-2-2--2-2--7-7-7--5-5-5--|
    . . .  . .  . . .  .      . . .  . .  . .    . . 

E|-------------------------------|
B|-------------------------------|
G|---------------------------7~--|
D|--4-4-4--4-4--5-5-5--5-5-5-5~--|
A|--4-4-4--4-4--5-5-5--5-5-5-5~--| (x1)
D|--4-4-4--4-4--5-5-5--5-5-5-5~--|
    . . .  . .  . . .  . . .

chorus

E|--------------------------------------------------------------|
B|--------------------------------------------------------------|
G|--------------------------------------------------------------|
D|--0-0-4-5-5-5-5-5--5-5-7-9-9-9-9-9--4-4-4-5-5-5-5-5--9--7--5--|
A|--0-0-4-5-5-5-5-5--5-5-7-9-9-9-9-9--4-4-4-5-5-5-5-5--9--7--5--| (x2)
D|--0-0-4-5-5-5-5-5--5-5-7-9-9-9-9-9--4-4-4-5-5-5-5-5--9--7--5--|

outro

E|-----------------------------------------------------------------|
B|-----------------------------------------------------------------|
G|-----------------------------------------------------------------|
D|--0-0-4-5-5-5-5-5--5-5-7-9-9-9-9-9--4-4-4-5-5-5-5-5--5--5--5--5--|
A|--0-0-4-5-5-5-5-5--5-5-7-9-9-9-9-9--4-4-4-5-5-5-5-5--5--5--5--5--| (x1)
D|--0-0-4-5-5-5-5-5--5-5-7-9-9-9-9-9--4-4-4-5-5-5-5-5--5--5--5--5--|

E|--------------------------------------------------------|
B|--------------------------------------------------------|
G|--------------------------------------------------------|
D|--0-0-4-5-5-5-5-5--5-5-7-9-9-9-9-9--4-4-4-5-5-5-5-5--5--|
A|--0-0-4-5-5-5-5-5--5-5-7-9-9-9-9-9--4-4-4-5-5-5-5-5--5--| (x1)
D|--0-0-4-5-5-5-5-5--5-5-7-9-9-9-9-9--4-4-4-5-5-5-5-5--5--|

end on

E|------|
B|------|
G|--7~--|
D|--7~--|
A|--5~--| (x1)
D|------|


----------------------------------------------------------------------------
Guitar 2
----------------------------------------------------------------------------

intro

E|-------------------|
B|-------------------|
G|--7---11-9--9-9----|
D|--x-0--x-x--x-x-0--|
A|--5-0--9-7--7-7-0--| (x3)
D|----0-----------0--|

E|---------------|
B|---------------|
G|--12--11--9-7--|
D|---x---x--x-x--|
A|--10---9--7-5--| (x1)
D|---------------|

E|-------------------|
B|-------------------|
G|--7---11-9--9-9----|
D|--x-0--x-x--x-x-0--|
A|--5-0--9-7--7-7-0--| (x3)
D|----0-----------0--|

E|---------------|
B|---------------|
G|--12--11--9-7--|
D|---x---x--x-x--|
A|--10---9--7-5--| (x1)
D|---------------|

verse

E|----------------------------------------------------------------------|
B|----------------------------------------------------------------------|
G|--7-7-7-7-7-7-7-7--9-9-9-9-9-9-9--------------------------------------|
D|--7-7-7-7-7-7-7-7--9-9-9-9-9-9-9-0--9-9-9-9-9-9-9-0--5-5-5-5-5-5-5-5--|
A|--5-5-5-5-5-5-5-5--7-7-7-7-7-7-7-0--9-9-9-9-9-9-9-0--5-5-5-5-5-5-5-5--|
D|---------------------------------0--9-9-9-9-9-9-9-0--5-5-5-5-5-5-5-5--|
*all palm-muted

verse

E|----------------------------------------------------------------------|
B|----------------------------------------------------------------------|
G|--7-7-7-7-7-7-7-7--9-9-9-9-9-9-9--------------------------------------|
D|--7-7-7-7-7-7-7-7--9-9-9-9-9-9-9-0--9-9-9-9-9-9-9-0--5-5-5-5-5-5-5-5--|
A|--5-5-5-5-5-5-5-5--7-7-7-7-7-7-7-0--9-9-9-9-9-9-9-0--5-5-5-5-5-5-5-5--| (x1)
D|---------------------------------0--9-9-9-9-9-9-9-0--5-5-5-5-5-5-5-5--|
*all palm-muted

E|----------------------------------------------------------------------|
B|----------------------------------------------------------------------|
G|--7-7-7-7-7-7-7-7--9-9-9-9-9-9-9-----------------------------------7--|
D|--7-7-7-7-7-7-7-7--9-9-9-9-9-9-9-0--9-9-9-9-9-9-9-0--5-5-5-5-5-5-5-7--|
A|--5-5-5-5-5-5-5-5--7-7-7-7-7-7-7-0--9-9-9-9-9-9-9-0--5-5-5-5-5-5-5-5--| (x1)
D|---------------------------------0--9-9-9-9-9-9-9-0--5-5-5-5-5-5-5----|
*all palm-muted except for the last note

E|----------------------------------------------------------------------|
B|----------------------------------------------------------------------|
G|--7-7-7-7-7-7-7-7--9-9-9-9-9-9-9-----------------------------7xx-7xx--|
D|--7-7-7-7-7-7-7-7--9-9-9-9-9-9-9-0--9-9-9-9-9-9-9-0--5-5-5-5-7xx-7xx--|
A|--5-5-5-5-5-5-5-5--7-7-7-7-7-7-7-0--9-9-9-9-9-9-9-0--5-5-5-5-5xx-5xx--| (x1)
D|---------------------------------0--9-9-9-9-9-9-9-0--5-5-5-5----------|
*all palm-muted except for the last set of notes

pre-chorus

E|-----------------------------------------------|
B|-----------------------------------------------|
G|-----------------------------------------------|
D|--5-5-5-5/9-9-9-9--0-5-5-5-5--5-5-5-5-5-5-5-5--|
A|--5-5-5-5/9-9-9-9--0-5-5-5-5--5-5-5-5-5-5-5-5--| (x1)
D|--5-5-5-5/9-9-9-9--0-5-5-5-5--5-5-5-5-5-5-5-5--|
                                  . . . 

chorus (very hard to hear, so listen for timing)

E|--10--10-10-------10--10-10-------10--10-10-------10--10-10-------|
B|----10-----10-10----10-----10-10----10-----10-10----10-----10-10--|
G|------------------------------------------------------------------|
D|------------------------------------------------------------------|
A|------------------------------------------------------------------| (x1)
D|------------------------------------------------------------------|

E|--10--10-10-------10--10-10-------10--10-10-------10--|
B|----10-----10-10----10-----10-10----10-----10-10------|
G|------------------------------------------------------|
D|------------------------------------------------------|
A|------------------------------------------------------| (x1)
D|------------------------------------------------------|

post-chorus

E|-------------------|
B|-------------------|
G|--7---11-9--9-9----|
D|--x-0--x-x--x-x-0--|
A|--5-0--9-7--7-7-0--| (x3)
D|----0-----------0--|

E|---------------|
B|---------------|
G|--12--11--9-7--|
D|---x---x--x-x--|
A|--10---9--7-5--| (x1)
D|---------------|

verse

E|---------------------------------------------------------------------|
B|---------------------------------------------------------------------|
G|--7-7-7-7-7-7-7-7--9-9-9-9-9-9-9-------------------------------7--7--|
D|--7-7-7-7-7-7-7-7--9-9-9-9-9-9-9-0--9-9-9-9-9-9-9-0--5-5-5-5-5-7--7--|
A|--5-5-5-5-5-5-5-5--7-7-7-7-7-7-7-0--9-9-9-9-9-9-9-0--5-5-5-5-5-5--5--| (x2)
D|---------------------------------0--9-9-9-9-9-9-9-0--5-5-5-5-5-------|
*all palm-muted except for the last two notes

E|---------------------------------|
B|---------------------------------|
G|--7-7-7---7-7-7---7-7-7---7-7-7--|
D|--x-x-x---x-x-x---x-x-x---x-x-x--|
A|--5-5-5---5-5-5---5-5-5---5-5-5--| (x2)
D|---------------------------------|

pre-chorus

E|--------------------------------------|
B|--------------------------------------|
G|--------------------------------------|
D|--5-5-5-5/9-9-9-9--0-5-5-5-5--5---5\--|
A|--5-5-5-5/9-9-9-9--0-5-5-5-5--5---5\--| (x1)
D|--5-5-5-5/9-9-9-9--0-5-5-5-5--5---5\--|

chorus (very hard to hear, so listen for timing)

E|--10--10-10-------10--10-10-------10--10-10-------10--10-10-------|
B|----10-----10-10----10-----10-10----10-----10-10----10-----10-10--|
G|------------------------------------------------------------------|
D|------------------------------------------------------------------|
A|------------------------------------------------------------------| (x2)
D|------------------------------------------------------------------|

bridge

E|-------------------------------------------------------------------|
B|-------------------------------------------------------2h3----2h3--|
G|------2---------------------------------2--------------------------|
D|--0-0---0-2-0-4-0--2-0-2-4-5-4-2-0--0-0---0-2-0-4-0----------------|
A|-------------------------------------------------------------------| (x2)
D|-------------------------------------------------------------------|

E|----------------------------------------|
B|----------------------------------------|
G|------2---------------------------------|
D|--0-0---0-2-0-4-0--2-0-2-4-5-4-2-0--5~--|
A|------------------------------------5~--| (x1)
D|------------------------------------5~--|

chorus (very hard to hear, so listen for timing)

E|--10--10-10-------10--10-10-------10--10-10-------10--10-10-------|
B|----10-----10-10----10-----10-10----10-----10-10----10-----10-10--|
G|------------------------------------------------------------------|
D|------------------------------------------------------------------|
A|------------------------------------------------------------------| (x2)
D|------------------------------------------------------------------|

outro

E|-------------------|
B|-------------------|
G|--7---11-9--9-9----|
D|--x-0--x-x--x-x-0--|
A|--5-0--9-7--7-7-0--| (x3)
D|----0-----------0--|

E|---------------|
B|---------------|
G|--12--11--9-7--|
D|---x---x--x-x--|
A|--10---9--7-5--| (x1)
D|---------------|

E|-------------------|
B|-------------------|
G|--7---11-9--9-9----|
D|--x-0--x-x--x-x-0--|
A|--5-0--9-7--7-7-0--| (x2)
D|----0-----------0--|

E|--------------------|
B|--------------------|
G|--7---11-9--9-9--7--|
D|--x-0--x-x--x-x--7--|
A|--5-0--9-7--7-7--5--| (x1)
D|----0---------------|

end on

E|------|
B|------|
G|--7~--|
D|--7~--|
A|--5~--| (x1)
D|------|


there you go... enjoy! if you have any comments or questions you can e-mail me at
killinginthename247@yahoo.com
Suggest correction
What's this?
You can suggest a correction to this tab. Community and Mods will review your correction and vote to approve or reject it.
comments
print report bad tab
6 comments total. Showing first comments.
0 reply
z3r0element07 2,037 wrote on March 11 2006, 09:11 pm

Not bad, but makes me want to tab this myself.

0 reply
pnkr0cker 2,098 wrote on May 13 2006, 05:06 pm

yeah, look at my comment on the first version

+1 reply
elokid06 13 wrote on June 19 2006, 03:50 pm

yo ok the intro is good but try this it is easyer and has the same sound

e
b--7-5---7-5---7-5-5-8-7
G7-----7-----7----------9-7 play it twice
D-7-----7-----7
A
D

guest
You may want to rate the tab now too:
select rating
Please do not post tabs as comments. Select "correction" instead!