Oops, an error
Loading. Please wait.

A Little Less Sixteen Candles A Little More Touch Me Bass Tab

version 3
version 3
1,169 views 9 this week
no commentswrite comment
1 2 3 4 5
please rate
add to favorites
launch autoscroll
font size
0
reset
guitar tuner
Tab Pro tools
  • play this tab
  • loop segment
  • change instrument
  • show fretboard
  • metronome
×
Best way to learn
"A Little Less Sixteen Candles A Little More Touch Me"
Autoscroll
slow
fast
+/-
esc
set tempo
stop
Contributor
Tuning
D A D G B E
Fall Out Boy - A Little Less Sixteen Candles, A Little More "Touch Me"

Tabbed by: XxThreeCheersxX
E-mail: burdickash@gmail.com

Tuning: Drop D

(sorry folks, it's not in standard, contrary to what the other bass tabs on here would 
have you believe)

Intro
G|-----|
D|-----|
A|-----|
D|-12\-|

G|-----------------------------------------------------------|
D|-----------------------------------------------------------|
A|-----------------------------------------------------------| x 2
D|-0-0-4-5--5-5-5-5-5-7-9--9-9-7-0-0-4-5--5-5-5-5--5--5--5-5-|

Verse I (play at 0:22)
G|-----|
D|-----|
A|-5-5-|
D|-----|

Come in again at 0:29
G|-----------------------------------------------------------------|
D|-----------------------------------------------------------------|
A|-5-5-5-5-5-5-5-5-7-7-7-7-7-7-7-----------------------------------|
D|-------------------------------7-9-9-9-9-9-9-9-0-5-5-5-5-5-5-5-5-|

Pre-Chorus
G|-----------------------------------------------------------------|
D|-----------------------------------------------------------------|
A|-----------------------------------------------------------------|
D|-5-5-5-5-5-5-5-9-9-9-9-9-9-9-9-9-5-5-5-5-5-5-5-5-5-5-5-5-5-5-5-5-|

Chorus
G|-----------------------------------------------------------|
D|-----------------------------------------------------------|
A|-----------------------------------------------------------|
D|-0-0-4-5--5-5-5-5-5-7-9--9-9-7-0-0-4-5--5-5-5-9--7--5--5-5-|

G|------------------------------------------------|
D|------------------------------------------------|
A|------------------------------------------------|
D|-0-0-4-5--5-5-5-5-5-7-9--9-9-7-0-0-4-5--5-5-5-5-|

Post-Chorus
G|-----------------------------------------------------------|
D|-----------------------------------------------------------|
A|-----------------------------------------------------------|
D|-0-0-4-5--5-5-5-5-5-7-9--9-9-9-0-0-4-5--5-5-5-5--5--5--5-5-|

Verse II
G|-----------------------------------------------------------------|
D|-----------------------------------------------------------------|
A|-5-5-5-5-5-5-5-5-7-7-7-7-7-7-7-----------------------------------| x 2
D|-------------------------------7-9-9-9-9-9-9-9-0-5-5-5-5-5-5-5-5-|

G|-----------------------------------------------------------------|
D|-----------------------------------------------------------------|
A|-5-5--5-5-5--5-7-7--7-7-7--7-9-9--9-9-9--9-10-10--10-10-10-10-10-|
D|-----------------------------------------------------------------|

Pre-Chorus II
G|------------------------------------------------------------------------|
D|------------------------------------------------------------------------|
A|------------------------------------------------------------------------|
D|-5-5-5-5-5-5-5-9-9-9-9-9-9-9-9-9-9-5-5-5-5-5-5-5-5-5-----------------12\|

Chorus II
G|-----------------------------------------------------------|
D|-----------------------------------------------------------|
A|-----------------------------------------------------------| x 2
D|-0-0-4-5--5-5-5-5-5-7-9--9-9-7-0-0-4-5--5-5-5-9--7--5--5-5-|

Bridge
G|--------------------------------------------------|
D|--------------------------------------------------|
A|--------------------------------------------------|
D|-4-4-4-------5-5-5------2-2-2---2-2--7-7-7--5-5-5-|

G|-----------------------------------------------------|
D|-----------------------------------------------------|
A|-----------------------------------------------------|
D|-4-4-4---4-4--5-5-5---5-5--2-2-2---2-2--7-7-7--5-5-5-|

G|---------------------------------------------------|
D|---------------------------------------------------|
A|---------------------------------------------------|
D|-4-4-4---4-4--5-5-5---5-5--5~---/7~---/9~---/11~---|

Final Chorus/Outro
G|-----------------------------------------------------------|
D|-----------------------------------------------------------|
A|-----------------------------------------------------------| x 2
D|-0-0-4-5--5-5-5-5-5-7-9--9-9-7-0-0-4-5--5-5-5-9--7--5--5-5-|

G|-----------------------------------------------------------|
D|-----------------------------------------------------------|
A|-----------------------------------------------------------|
D|-0-0-4-5--5-5-5-5-5-7-9--9-9-7-0-0-4-5--5-5-5-5--5--5--5-5-|

G|------------------------------------------------|
D|------------------------------------------------|
A|------------------------------------------------|
D|-0-0-4-5--5-5-5-5-5-7-9--9-9-7-0-0-4-5--5-5-5-5-|

Happy playing!

| /  slide up
| \  slide down
| h  hammer-on
| p  pull-off
| ~  vibrato
| +  harmonic
| x  Mute note
===============================================================================
comments
We did not receive enough feedback on this tab! Please rate:
print report bad tab
1 2 3 4 5
I want to post or [tab]
guest
You may want to rate the tab now too:
select rating
Please do not post tabs as comments. Select "correction" instead!