Oops, an error
Loading. Please wait.

After Life Of The Party Bass Tab

version 1
version 1

Whole song

Interactive

3,124 views 3 this week
2 commentsread comments
1 2 3 4 5
excellent!
x 7
add to favorites
launch autoscroll
font size
0
reset
guitar tuner
Autoscroll
slow
fast
+/-
esc
set tempo
stop
Help us to improve Ultimate-Guitar.com Take our survey!
×
Author
Song: The (After) Life Of The Party
Artist: Fall Out Boy
Tabbed by: Valerie L.
e-mail: iloled@yahoo.com

Verse: "I'm a stitch awway.."
G|-------------------|
D|-------------------|
A|----55--1~------3~-|
E|-1~---------1~-----| x2

Chorus: "Cut it loose..."
G|-------------------------------------|
D|-------------------------------------|
A|-1111111111111111-----------33333333-|
E|------------------11111111-----------| x4

Verse x2
Chorus x4

Bridge: (2:08)
G|----------------------------------------------------------------------|
D|----------------------------------------------------------------------|
A|------------------5555555555555555--1111111111111111------------------|
E|-1111111111111111------------------------------------11111111-00000000| 

G|-------------------------------------------------------------------|
D|-------------------------------------------------------------------|
A|-5555555555555555----------------1111111111111111------------------|
E|-----------------33333333333333-------------------11111111-00000000| 

Chorus
G|-------------------------------------|   |------------|
D|-------------------------------------|   |---------23-|
A|-1111111111111111-----------33333333-|   |-3-0-1-3----|
E|------------------11111111-----------|x2 |------------|

G|-------------------------------------|    |-----|
D|-------------------------------------|    |-----|
A|-1111111111111111-----------33333333-|    |-----|
E|------------------11111111-----------| x2 |-1~--|
Suggest correction
comments
print report bad tab
2 comments total.
0 reply
ryanweggler 10 wrote on May 5 2007, 02:29 pm

amazinggggg

0 reply
feeney 112 wrote on September 11 2007, 07:50 am

5 stars

guest
You may want to rate the tab now too:
select rating
Wanna post a correction for this tab? Suggest correction