Oops, an error
Loading. Please wait.

Alone Together Bass Tab

version 1
version 1

Whole song

Interactive

6,739 views 12 this week
4 commentsread comments
1 2 3 4 5
worth learning
x 6
add to favorites
launch autoscroll
font size
0
reset
guitar tuner
Autoscroll
slow
fast
+/-
esc
set tempo
stop
Help us to improve Ultimate-Guitar.com Take our survey!
×
Difficulty
novice
ALONE TOGETHER - FALL OUT BOY BASS TAB

Tabbed by Dhruv Angresh for Michelle because there are no good bass tabs for this song

contact at dhruvangresh@gmail.com for corrections

(Backwards slashes are elevensies, just for spacing's sake)

"Say yeah" (riff 1)
E|5---5---5---5---|0---0---0---0---|----------------|----------------|
A|----------------|----------------|2---2---2---2---|4---4---4---2---|
D|----------------|----------------|----------------|----------------| X2
G|----------------|----------------|----------------|----------------|

(riff 2)
E|----------------|----------------|----------------|----------------|
A|7-7-7-7-7-7-7-7-|7-7-7-7-7-7-7-9-|5-5-5-5-5-5-5-5-|5-5-5-5-5-5-5-5-|
D|----------------|----------------|----------------|----------------|
G|-9-9-9-9-9-9-9-9|-9-9-9-9-9-9-\-\|-7-7-7-7-7-7-7-7|-7-7-7-7-7-7-7-7|

Stop! till...

"My heart is like a stallion" (riff 3)
E|----------------|----------------|----------------|----------------|
A|7-7-7-7-7-7-7-7-|4-4-4-4-4-4-4-4-|0-0-0-0-0-224444|0-0-0-0-0-0-0-0-|
D|----------------|----------------|----------------|----------------|
G|----------------|----------------|----------------|----------------|

"I'm outside the door" (riff 4)
E|----------------|----------------|----------------|----------------|
A|2222222222224444|0000000000007777|2222222222224444|000000000000----|
D|----------------|----------------|----------------|----------------|
G|----------------|----------------|----------------|----------------|

"I don't know where you're going" (riff 5)
E|----------------|0-0-0-0---------|
A|4-4-4-4-0-0-0-0-|--------2-2-2-2-|
D|----------------|-2-2-2-2--------| X3
G|----------------|----------------|

E|----------------|0---------------|
A|4-4-4-4-0-0-0-0-|----------------|
D|----------------|----------------|
G|----------------|----------------|

riff 1
riff 2

"my heart is like a stallion" - don't play

riff 4

pause again

"say yeah"
E|5---5---5---5---|0---0---0---0---|----------------|----------------|
A|----------------|----------------|2---2---2---2---|2---2---2---3---|
D|----------------|----------------|----------------|----------------|
G|----------------|----------------|----------------|----------------|

riff 5 (without the last note)

Suggest correction
What's this?
You can suggest a correction to this tab. Community and Mods will review your correction and vote to approve or reject it.
comments
print report bad tab
4 comments total. Showing first comments.
+2 reply
kenziethomas13 204 wrote on July 21 2013, 01:44 pm

Just for next time have the layout be from your lowest string to highest.

G|------------------------|
A|------------------------|
D|------------------------|
E|------------------------|

0 reply
Ashers223 12 wrote on August 30 2013, 01:55 pm

I'm confused at your list of what to play first, you said; Rift 1/2, don't play "my heart is like a stallion"... rift 4 pause rift 5... What happened to rift three? (You may be new, but please make sure it's accurate. Unless i'm missing something, as you may have a different way of reading tabs than I do) sorry for the inconvenience if caused.

0 reply
geekout96 11 wrote on October 5 2014, 09:55 pm

Lack of formatting. tab is upside down. otherwise correct. e string is at top when it should be at the bottom and g is at the bottom

guest
You may want to rate the tab now too:
select rating
Please do not post tabs as comments. Select "correction" instead!