Oops, an error
Loading. Please wait.

Alone Together Tab

version 1
version 1

Whole song

Interactive

17,803 views 15 this week
no commentswrite comment
1 2 3 4 5
x 6
add to favorites
launch autoscroll
font size
0
reset
how to read this tab
guitar tuner
Autoscroll
slow
fast
+/-
esc
set tempo
stop
Help us to improve Ultimate-Guitar.com Take our survey!
×
Author
Intro (Chorus)

1st part

e|-4----5----------------------------|
B|-5----5----9----4------------------|
G|-6----6----9----4------------------|
D|-6----7----9----4------------------|   x4
A|-4----7----7----2------------------|
E|------5----------------------------|

2nd part (with distortion)

e|-----------------------------------|
B|-----------------------------------|
G|------9----------------------------|
D|-7----9----9----10--/9-------------|   x2
A|-7----7----9----10--/9-------------|
E|-5---------7----9---/7-------------|

Pre-verse (oh oh oh ...)

e|-0---------------4-----------------|
B|-0---------------5-----------------|
G|-1---------------6-----------------|
D|-2---------------6-----------------|
A|-2---------------4-----------------|
E|-0---------------------------------|

Verse

e|-0----4----5--4--5-----------------|
B|-0----5----5--5--5-----------------|
G|-1----6----6--6--6-----------------|
D|-2----6----7--6--7-----------------|   x2
A|-2----4----7--4--7-----------------|
E|-0---------5-----5-----------------|

This riff comes in the part of the verse
(I know that the riff is not perfect but it's a good point to start!)

e|--------------------------------------------|
B|-6h4-6h4-6h4-6h4-6h4-6-4-6-4----------------|
G|--------------------------------------------|
D|--------------------------------------------|
A|--------------------------------------------|
E|--------------------------------------------|

Pre-chorus

e|----------------------5---------------------|
B|-4------5-------4-----5---------------------|
G|-4------6-------4-----6---------------------|
D|-4------6-------4-----7---------------------|
A|-2------4-------2-----7---------------------|
E|----------------------5---------------------|

Chorus

1st part

e|-4----5----------------------------|
B|-5----5----9----4------------------|
G|-6----6----9----4------------------|
D|-6----7----9----4------------------|   x4
A|-4----7----7----2------------------|
E|------5----------------------------|

2nd part (with distortion)

e|-----------------------------------|
B|-----------------------------------|
G|------9----------------------------|
D|-7----9----9----10--/9-------------|   x2
A|-7----7----9----10--/9-------------|
E|-5---------7----9---/7-------------|

Pre-verse (oh oh oh ...)

e|-0---------------4-----------------|
B|-0---------------5-----------------|
G|-1---------------6-----------------|
D|-2---------------6-----------------|
A|-2---------------4-----------------|
E|-0---------------------------------|

Verse

e|-0----4----5--4--5-----------------|
B|-0----5----5--5--5-----------------|
G|-1----6----6--6--6-----------------|
D|-2----6----7--6--7-----------------|
A|-2----4----7--4--7-----------------|
E|-0---------5-----5-----------------|

Pre-chorus

e|----------------------5---------------------|
B|-4------5-------4-----5---------------------|
G|-4------6-------4-----6---------------------|
D|-4------6-------4-----7---------------------|
A|-2------4-------2-----7---------------------|
E|----------------------5---------------------|

Chorus
(In this final chorus the parts are inverted)

1st part (with distortion)

e|-----------------------------------|
B|-----------------------------------|
G|------9----------------------------|
D|-7----9----9----10--/9-------------|   x2
A|-7----7----9----10--/9-------------|
E|-5---------7----9---/7-------------|

2nd part

e|-4----5----------------------------|
B|-5----5----9----4------------------|
G|-6----6----9----4------------------|
D|-6----7----9----4------------------|   x4
A|-4----7----7----2------------------|
E|------5----------------------------|
Suggest correction
comments
print report bad tab
guest
You may want to rate the tab now too:
select rating
Wanna post a correction for this tab? Suggest correction