Oops, an error
Loading. Please wait.

Alone Together Bass Tab

version 2
version 2

Whole song

Interactive

5,019 views 27 this week
1 commentread comment
1 2 3 4 5
accurate
x 6
add to favorites
launch autoscroll
font size
0
reset
guitar tuner
Tab Pro tools
  • play this tab
  • loop segment
  • change instrument
  • show fretboard
  • metronome
Autoscroll
slow
fast
+/-
esc
set tempo
stop
Contributor
Difficulty
novice
"Say yeah" (riff 1)
G|----------------|----------------|----------------|----------------| X2
D|----------------|----------------|----------------|----------------|
A|----------------|----------------|2---2---2---2---|4---4---4---2---|
E|5---5---5---5---|0---0---0---0---|----------------|----------------|

(riff 2)
G|-9-9-9-9-9-9-9-9|-9-9-9-9-9-9-\-\|-7-7-7-7-7-7-7-7|-7-7-7-7-7-7-7-7|
D|----------------|----------------|----------------|----------------|
A|7-7-7-7-7-7-7-7-|7-7-7-7-7-7-7-9-|5-5-5-5-5-5-5-5-|5-5-5-5-5-5-5-5-|
E|----------------|----------------|----------------|----------------|

Pause

"My heart is like a stallion" (riff 3)
G|----------------|----------------|----------------|----------------|
D|----------------|----------------|----------------|----------------|
A|7-7-7-7-7-7-7-7-|4-4-4-4-4-4-4-4-|0-0-0-0-0-224444|0-0-0-0-0-0-0-0-|
E|----------------|----------------|----------------|----------------|

"I'm outside the door" (riff 4)
G|----------------|----------------|----------------|----------------|
D|----------------|----------------|----------------|----------------|
A|2222222222224444|0000000000007777|2222222222224444|000000000000----|
E|----------------|----------------|----------------|----------------|

"I don't know where you're going" (riff 5)
G|----------------|----------------|
D|----------------|-2-2-2-2--------| X3
A|4-4-4-4-0-0-0-0-|--------2-2-2-2-|
E|----------------|0-0-0-0---------|

G|----------------|----------------|
D|----------------|----------------|
A|4-4-4-4-0-0-0-0-|----------------|
E|----------------|0---------------|

riff 1
riff 2

"my heart is like a stallion" - don't play

riff 4

pause again

"say yeah"
G|----------------|----------------|----------------|----------------|
D|----------------|----------------|----------------|----------------|
A|----------------|----------------|2---2---2---2---|2---2---2---3---|
E|5---5---5---5---|0---0---0---0---|----------------|----------------|

riff 5 (without the last note)
comments
print report bad tab
1 comment total.
-2 reply
Bliss101 wrote on October 21 2013, 12:22 pm

Almost got it! Good Job!
Riff 2 is wrong. It's (A-String) 7 (16x) and 4 (16x)
Riff 5: Just play 7 (A-String) instead of 0-2-0-2... (4x)
There we go.

I want to post or [tab]
guest
You may want to rate the tab now too:
select rating
Please do not post tabs as comments. Select "correction" instead!