Oops, an error
Loading. Please wait.

Alone Together Tab

version 2
version 2

Whole song

Interactive

4,251 views 9 this week
no commentswrite comment
1 2 3 4 5
please rate
add to favorites
launch autoscroll
font size
0
reset
how to read this tab
guitar tuner
Tab Pro tools
  • play this tab
  • loop segment
  • change instrument
  • show fretboard
  • metronome
×
Best way to learn
"Alone Together"
Autoscroll
slow
fast
+/-
esc
set tempo
stop
Contributor
Difficulty
novice
-----------------------------------------------------------------------------
                             ALONE TOGETHER - Fall Out Boy
-----------------------------------------------------------------------------
Tabbed by:Tyler Thornes
E-mail:tjthornes@umes.edu

Tuning:Standard
(0:21)
e|----------------------------------------------------------------|
B|----------------------------------------------------------------|
G|-----9----------------------------------------------------------|
D|-7---9---9---11-------------------------------------------------|
A|-7---7---9---11-------------------------------------------------|
E|-5-------7---9--------------------------------------------------|
(0:53)
Clean: Strum These
e|--------------------------------------------------------------|
B|--------------------------------------------------------------|
G|-(9)--------------(9)-----------------------------------------|
D|--9---(11)--(7)----9--(11)--(7)---11---7---11---7-------------|
A|--7----11----7-----7---11----7----11---7---11---7-------------|
E|-------9-----5---------9-----5----9----5---9----5-------------|
(1:26)
Chorus:
e|----------------------------------------------------------------|
B|----------------------------------------------------------------|
G|----------9-----------------------------------------------------|
D|-11---7---9---9-------------------------------------------------|
A|-11---7---7---9-------------------------------------------------|
E|-9----5-------7-------------------------------------------------|
(1:44)
Refrain:This just skips of the 9/11/11 of the chorus at the beginning.
e|----------------------------------------------------------------|
B|----------------------------------------------------------------|
G|-----9----------------9-----------------------------------------|
D|-7---9---9---11---7---9---9---11--------------------------------|
A|-7---7---9---11---7---7---9---11--------------------------------|
E|-5-------7---9----5-------7---9---------------------------------|
(2:19)
Clean: Strum these.
e|----------------------------------------------------------|
B|----------------------------------------------------------|
G|-(9)------------------------------------------------------|
D|--9---(11)--(7)--------11---7---11---7--------------------|
A|--7----11----7---------11---7---11---7--------------------|
E|-------9-----5---------9----5---9----5--------------------|
(2:51)
Refrain:This just skips of the 9/11/11 of the chorus at the beginning.Strum that final 
7/9/9 during the "skip" in Patrick's vocal.
e|--------------------------------------------------------------|
B|--------------------------------------------------------------|
G|-----9--------------------------------------------------------|
D|-7---9---9----------------------------------------------------|
A|-7---7---9----------------------------------------------------|
E|-5-------7----------------------------------------------------|
(3:01)
Final Chorus
e|--------------------------------------------------------------|
B|--------------------------------------------------------------|
G|-------------------9------------------------------------------|
D|----------11---7---9---9---11---------------------------------|
A|----------11---7---7---9---11---------------------------------|
E|-----------9---5-------7---9----------------------------------|
End on:
e|----
B|----
G|----
D|-7--
A|-7--
E|-5--

Let me know if anything is wrong.
Enjoy!





************************************

| /   slide up
| \   slide down
| h   hammer-on
| p   pull-off
| ~   vibrato
| +   harmonic
| x   Mute note
| b   Bend
| pb  Pre-bend
| br  Bend release
| pbr Pre-bend release
| brb Bend release bend

************************************
comments
We did not receive enough feedback on this tab! Please rate:
print report bad tab
1 2 3 4 5
I want to post or [tab]
guest
You may want to rate the tab now too:
select rating
Please do not post tabs as comments. Select "correction" instead!