Oops, an error
Loading. Please wait.

American Made Tab

731 views 1 this week
no commentswrite comment
1 2 3 4 5
2 more votes to show rating
add to favorites
launch autoscroll
font size
0
reset
how to read this tab
guitar tuner
Autoscroll
slow
fast
+/-
esc
set tempo
stop
Help us to improve Ultimate-Guitar.com Take our survey!
×
Author
Difficulty
-------------------------------------------------------------------------------
                           AMERICAN MADE - Fall Out Boy
-------------------------------------------------------------------------------
Tabbed by: Guitarfreak147
E-mail: experienceit13@gmail.com

This song is easy to play. It is the new song off of Fall Out Boy's most recent EP 
"PAX AM Days" which I must say is very unusual for them.
Nonetheless I like this punk sound. It is very old school and sounds underground 
which is not something ever achieved by them.


Tuning: Standard (Heavily Distorted)

INTRO Guitar 1:
e|----------------------|
B|----------------------|
G|----------------------| Honestly I am not positive on the slide...
D|--11------/9/-11------| ...the bass does it, so I just do it too; up to you.
A|--11-x16--/9/-11-x48--|
E|--9-------/7/-9-------|

VERSE Guitar 1 & 2:
e|--------------------------------------------------------------------|
B|--------------------------------------------------------------------|
G|--------------------------------------------------------------------|
D|--11-----9999-77777777-99999999-11111111111111111111111111111111----| x2
A|--11-x28-9999-77777777-99999999-11111111111111111111111111111111----|
E|--9------7777-55555555-77777777-9-9-9-9-9-9-9-9-9-9-9-9-9-9-9-9-----|

CHORUS Guitar 1
e|--------------------------------------------------------|
B|--------------------------------------------------------|
G|--------------------------------------------------------| x4
D|--77777777-99999999-11111111111111111111111111111111----| Skip the last chord
A|--77777777-99999999-11111111111111111111111111111111----| on the fourth time
E|--55555555-77777777-9-9-9-9-9-9-9-9-9-9-9-9-9-9-9-9-----|

Guitar 2:
e|--------------------------------------------------------------------------|
B|--------------------------------------------------------------------------|
G|-12-12-11-11-10-10-99999999-66666666666666666-444444-99999999--6----------|
D|-x--x--x--x--x--x--xxxxxxxx-xxxxxxxxxxxxxxxxx-xxxxxx-xxxxxxxx--x-x16------|
A|-10-10-9--9--8--8--77777777-44444444444444444-222222-77777777--4----------|
E|--------------------------------------------------------------------------|

e|--------------------------------------------------------------------------|
B|--------------------------------------------------------------------------|
G|-12-12-11-11-10-10-99999999-66666666666666666-99999999-1111111111111111---|
D|-x--x--x--x--x--x--xxxxxxxx-xxxxxxxxxxxxxxxxx-xxxxxxxx-x-x-x-x-x-x-x-x----|
A|-10-10-9--9--8--8--77777777-44444444444444444-77777777-9-9-9-9-9-9-9-9----|
E|--------------------------------------------------------------------------|

PAUSE IN MUSIC WITH HEAVY FEEDBACK

e|-20~~~-|
B|-------| With heavy distortion, this sounds just as good.
G|-------| Good for small amps that don't give off feedback.
D|-------|
A|-------|
E|-------|

VERSE Guitar 1 & 2:
e|--------------------------------------------------------------------|
B|--------------------------------------------------------------------|
G|--------------------------------------------------------------------|
D|--11-----9999-77777777-99999999-11111111111111111111111111111111----| x2
A|--11-x28-9999-77777777-99999999-11111111111111111111111111111111----|
E|--9------7777-55555555-77777777-9-9-9-9-9-9-9-9-9-9-9-9-9-9-9-9-----|

CHORUS Guitar 1
e|--------------------------------------------------------|
B|--------------------------------------------------------|
G|--------------------------------------------------------| x2
D|--77777777-99999999-11111111111111111111111111111111----| Skip the last chord
A|--77777777-99999999-11111111111111111111111111111111----| on the second time
E|--55555555-77777777-9-9-9-9-9-9-9-9-9-9-9-9-9-9-9-9-----|

Guitar 2:
e|--------------------------------------------------------------------------|
B|--------------------------------------------------------------------------|
G|-12-12-11-11-10-10-99999999-66666666666666666-99999999-1111111111111111---|
D|-x--x--x--x--x--x--xxxxxxxx-xxxxxxxxxxxxxxxxx-xxxxxxxx-x-x-x-x-x-x-x-x----|
A|-10-10-9--9--8--8--77777777-44444444444444444-77777777-9-9-9-9-9-9-9-9----|
E|--------------------------------------------------------------------------|

END OF SONG WITH HEAVY FEEDBACK

e|-20~~~-|
B|-------| Again: With heavy distortion, this sounds just as good.
G|-------| Good for small amps that don't give off feedback.
D|-------|
A|-------|
E|-------|

************************************

| /   slide up
| \   slide down
| h   hammer-on
| p   pull-off
| ~   vibrato
| +   harmonic
| x   Mute note
| b   Bend
| pb  Pre-bend
| br  Bend release
| pbr Pre-bend release
| brb Bend release bend

************************************
Suggest correction
Give kudos to tab author, rate the tab!
1 2 3 4 5
comments
print report bad tab
guest
You may want to rate the tab now too:
select rating
Wanna post a correction for this tab? Suggest correction