Oops, an error
Loading. Please wait.

Americas Suitehearts Bass Tab

version 1
version 1

Whole song

Interactive

21,363 views 1 this week
7 commentsread comments
1 2 3 4 5
x 5
add to favorites
launch autoscroll
font size
0
reset
guitar tuner
Autoscroll
slow
fast
+/-
esc
set tempo
stop
Help us to improve Ultimate-Guitar.com Take our survey!
×
-------------------------------------------------------------------------------
			     America's Suitehearts - Fall Out Boy
-------------------------------------------------------------------------------

Tabbed By: Valerie Louie
e-mail: queefist@yahoo.com
Tuning: Drop D

Intro
G|------------|    |----------|
D|------------|    |----------|
A|------------|    |----------|
D|-7--7-77--7-|x3  |-7-7--77-7|

Verse "You could've knocked me out.."
G|-------------------------------------------------------------------------|
D|-------------------------------------------------------------------------|
A|------------------------------------12-----------------------------------|
D|12---1211----7-9----9-7--7h9p7h9-12------12----1211----7-9---9-7---79-79-|

pre-chorus "Don't know much about classic cars."
G|--------------------------------------------------------------------------------|
D|--------------------------------------------------------------------------------|
A|-2--22--22--22-2------------------2--22-2-2--22-2-------------------------------|
D|-----------------9--99--99--99-7------------------9--99--99--99-7--5~---5-5--5~-|

chorus "Let's hear it for America's Sweethearts."
G|------------------------------------------------------|
D|------------------------------------------------------|
A|------------------------------------------------------|
D|00-0--000-0-99-9--999-9--55-5--555-5--99977775555777-7|x2

Verse "you can bow and pretend"
G|------------------------------------------------------------------------|
D|------------------------------------------------------------------------|
A|------------------------------------12----------------------------------|
D|0---1211----7-9----9-7--7h9p7h9-12------12----1211----7-9---9-7---79-79-|

pre-chorus x1
chorus x2

Intro
G|------------|    |----------|
D|------------|    |----------|
A|------------|    |----------|
D|-7--7-77--7-|x9  |-7-7--77-7|

keep repeating chorus until end.
Suggest correction
comments
print report bad tab
7 comments total. Showing first comments.
+1 reply
MusicMan24 1,114 Jan 18, 2009 03:58 PM

Intro should be open notes.

I'm gonna do a bass tab for this soon.

0 reply
MusicMan24 1,114 Mar 10, 2009 06:57 PM

Okay, ignore the other comment I posted for this tab

This is a good tab except for 3 things:

Chorus should be:

G|------------------------------|
D|------------------------------|
A|---5----5----5----5----5----5-|
D|000--000--999--999--555--555--|

Pre-Chorus should be:

G|--------------------------------------------------|
D|--------------------------------------------------|
A|--------------------------------------------------|
D|2--22--22--22--2-9--99--99--99-7-2--22--22--22--2-|

G|-----------------------------|
D|-----------------------------|
A|-----------------------------|
D|9--99--99--99-7-0~--0-0-0-0~-|

And the intro should be open notes

0 reply
gord_oh 10 Apr 09, 2009 02:01 PM

you have 4 strings....use them. you fly up like 8 frets when you could do everything a lot easier.
(this goes for all your tabs)

guest
You may want to rate the tab now too:
select rating
Wanna post a correction for this tab? Suggest correction