Oops, an error
Loading. Please wait.

Americas Suitehearts Bass Tab

version 2
version 2

Whole song

Interactive

3,116 views 1 this week
no commentswrite comment
1 2 3 4 5
2 more votes to show rating
add to favorites
launch autoscroll
font size
0
reset
guitar tuner
Autoscroll
slow
fast
+/-
esc
set tempo
stop
Help us to improve Ultimate-Guitar.com Take our survey!
×
Author
Difficulty
Tuning
novice
D A D G B E
-------------------------------------------------------------------------------
			     America's Suitehearts - Fall Out Boy
-------------------------------------------------------------------------------

Tabbed By: Jay Sanderson
e-mail: s.o.admin@hotmail.com
Tuning: Drop D

Intro

G|----|   G|------------|    |------------|
D|----|   D|------------|    |------------|
A|----|   A|------------|    |------------|
A|-7~-|   D|-7--7-77--7-|x3  |-7-7--77-7/0|


Verse

G|--------------------------------------------|
D|-----------------------7--------------------|
A|-5---54---02-20-0202/5---5--54---02-20-0202-|
D|--------------------------------------------|


pre-chorus 

G|------------------------------------------------------------------------------|
D|------------------------------------------------------------------------------|
A|--------------------22-2-22-2-22-2-220--------------------22-2-2--22-20-------|
D|-22-2-22-2-22-2-22-2-------------------22-2-22-2-22-2-22-2-------------5-55-5-|


chorus

G|----------------------------------------------------|
D|----------------------------------------------------|
A|-----------222-2-222--------------------------------|
D|-000-0-000-----------555-5-555-99977775555777799999-|x2


Second Verse 

G|--------------------------------------------------|
D|-----------------------------7--------------------|
A|-5---54---------02-20-0202/5---5--54---02-20-0202-|
D|--------------------------------------------------|


pre-chorus 

G|---------------------------------------------------------------------------------|
D|---------------------------------------------------------------------------------|
A|--------------------22-2-22-2-22-2-220--------------------22-2-22-2-22-20--------|
D|-22-2-22-2-22-2-22-2-------------------22-2-22-2-22-2-22-2----------------5-55-5-|


chorus

G|----------------------------------------------------|
D|----------------------------------------------------|
A|-----------222-2-222--------------------------------|
D|-000-0-000-----------555-5-555-99977775555777799999-|x2


Break 

G|------------|    |------------|
D|------------|    |------------|
A|------------|    |------------|
D|-7--7-77--7-|x9  |-7-7--77-7/0|


chorus

G|----------------------------------------------------|
D|----------------------------------------------------|
A|-----------222-2-222--------------------------------|
D|-000-0-000-----------555-5-555-99977775555777799999-|x2


Outro

G|-------------------------------------------------------|
D|-------------------------------------------------------|
A|-----------222-2-222-----------------------------------|
D|-000-0-000--------------555-5-555-99977775555777799999-|



G|-----------|
D|-----------|
A|-----------|
D|-000-0-000-|



Suggest correction
Give kudos to tab author, rate the tab!
1 2 3 4 5
comments
print report bad tab
guest
You may want to rate the tab now too:
select rating
Wanna post a correction for this tab? Suggest correction