Oops, an error
Loading. Please wait.

Americas Suitehearts Tab

version 2
version 2
6,710 views 1 this week
no commentswrite comment
1 2 3 4 5
accurate
x 4
add to favorites
launch autoscroll
font size
0
reset
how to read this tab
guitar tuner
Autoscroll
slow
fast
+/-
esc
set tempo
stop
Help us to improve Ultimate-Guitar.com Take our survey!
×
Author
Difficulty
Tuning
novice
D A D G B E
INTRO

e|------------------------------------------|
B|------------------------------------------|
G|-66666666--77777777--99999999--10---------|
D|-XXXXXXXX--XXXXXXXX--XXXXXXXX---X-(X8)----|X1
A|-44444444--55555555--77777777---8---------|
D|------------------------------------------|

Verse

e|-----------------------|
B|-----------------------|
G|-7-7-7-7\-6-6-6-6------|
D|-7-7-7-7\-6-6-6-6------|(X4)
A|-5-5-5-5\-4-4-4-4------|
D|-----------------------|

Pre Chorus

e|-----------------------------------|-------------------------------------------|
B|-----------------------------------|-------------------------------------------|
G|-----------------------------------|-------------------------------------------|
D|-55--55--55--55--99--99--99--99--7\|55--55--55--55--99--99--99--99--9-7-5~5~~--|
A|-55--55--55--55--99--99--99--99--7\|55--55--55--55--99--99--99--99--9-7-5~5~~--|
D|-55--55--55--55--99--99--99--99--7\|55--55--55--55--99--99--99--99--9-7-5~5~~--|
   ..  ..  ..  ..  ..  ..  ..  ..     ..  ..  ..  ..  ..  ..  ..  ..  

Chorus

e|--------------------------------------------|
B|--------------------------------------------|
G|----7----7----7----7----7----7--------------|
D|-00-X-00-X-99-X-99-X-55-X-55-X-77777777-----| (X2)
A|-00-5-00-5-99-5-99-5-55-5-55-5-77777777-----|
D|-00---00---99---99---55---55---77777777-----|


Verse 2

e|------------------------------------|------------------------------|
B|------------------------------------|------------------------------|
G|-7-7-7-7\-6-6-6-6--7----------------|------------------------------|
D|-7-7-7-7\-6-6-6-6--5-break-6-6-6-6--|then u play like verse one X2-|
A|-5-5-5-5\-4-4-4-4--5-------4-4-4-4--|------------------------------|
D|---------------------------4-4-4-4--|------------------------------|

Chorus X2

INTRO X2

Chorus X4

then play this part

e|--------------------------------------------------|
B|--------------------------------------------------|
G|----7----7----7----7-9-12-----7----7--------------|
D|-00-X-00-X-99-X-99-7-9-12--55-X-55-X-77777777-----| 
A|-00-5-00-5-99-5-99-5-7-10--55-5-55-5-77777777-----|
D|-00---00---99---99---------55---55---77777777-----|


Outro
e|------------------|
B|------------------|
G|------------------|
D|-555--5555--------|
A|-555--5555--------|
D|-555--5555--------|
   ...  ....
Suggest correction
comments
print report bad tab
guest
You may want to rate the tab now too:
select rating
Wanna post a correction for this tab? Suggest correction