Oops, an error
Loading. Please wait.

Americas Suitehearts Tab

version 4
version 4
1,165 views 1 this week
no commentswrite comment
1 2 3 4 5
please rate
add to favorites
launch autoscroll
font size
0
reset
how to read this tab
guitar tuner
Autoscroll
slow
fast
+/-
esc
set tempo
stop
Help us to improve Ultimate-Guitar.com Take our survey!
×
Author
This is how you SHOULD PLAY THE FOLLOWING CHORDS
 A6                 D
e|---2---]          e|----2---|
B|---2---]          B|----3---|
G|---2---]          G[----2---|

INTRO:
e|--------------------------------|
B|--------------------------------|
G|-666666--77777--99999--101010---|
D|-777777--77777--77777--777777---|
A|-777777--77777--77777--777777---|
D|--------------------------------|
VERSE 1

                 D                     A6
You could have knocked me out with a feather.
                Bm                                           A
I know you've heard this all before, but we're just Hell's neighbors.
 D                                     A6
Why, why, why won't the world revolve around me?

Bm                            A
Build my dreams, trees grow all over the streets.

IN THE NEXT PARAGRAPH LET'S PLAY THE CHORD PLAYING palm
                 F#m                Bm
But I don't know much about classic cars,
               F#m                             Bm
But I've got a lot of friends stuck on classic coke.
     G         G     G
Down, set, one,Hut, hut, hike,(YOU HAVE TO EXTRACT THE PACE IN:Down,SET..)
Media Blitz
CHORUS

Lets hear it for America's ...

e|------------------------------------------------------|
B|------------------------------------------------------|
G|----7-----7-----7-----7-----7----7--------------------|
D|-00-x--00-x--99-x--99-x--55-x-55-x---9~--7~--5~--7~---|
A|-00-5--00-5--99-5--99-5--55-5-55-5---9~--7~--5~--7~---|X2
D|-00----00----99----99----55---55-----9~--7~--5~--7~---|


VERSE 2:

D                A6
You can bow and pretend THAT
         Bm                         A
you don't don't know you're a legend
D                     A6               Bm
Time time time hasn't told anyone else yet
                        A
 let my love loose again

 AGAIN IN THE NEXT PARAGRAPH LET'S PLAY THE CHORD PLAYING palm
                 F#m                Bm
But I don't know much about classic cars,
               F#m                             Bm
But I've got a lot of friends stuck on classic coke.
     G         G     G
Down, set, one,Hut, hut, hike,
Media Blitz


CHORUS

Lets hear it for America's ...

e|------------------------------------------------------|
B|------------------------------------------------------|
G|----7-----7-----7-----7-----7----7--------------------|
D|-00-x--00-x--99-x--99-x--55-x-55-x---9~--7~--5~--7~---|
A|-00-5--00-5--99-5--99-5--55-5-55-5---9~--7~--5~--7~---|X2
D|-00----00----99----99----55---55-----9~--7~--5~--7~---|


 And AH0RA IN THIS PART YOU MUST PUT THE PALM OF THE HAND IT RAISES AND TO TOUCH 
THE FOLLOWING CHORDS
          D                     A6
You could have knocked me out with a feather.
                Bm
I know you've heard this all before

CHORUS

VERSE 1

E|--------------------------------------------------------------------------------------|
B|---------- 55--77------77-----77--77-----55--77-------77------77--77------------------|
G|--------------------------------------------------------------------------------7-----|
D|---44-7777---------7-------77---------7----44-7777----------7-------77----------------|
A|-0------------------------------------------------------------------------------------|
D|-0------------------------------------------------------------------------------------|


E|---------------------------------------------------------------|
B|---------55--77---77---77--77-----------55-77--77---77-77------|
G|----------------------------------------------------------7----|
D|-44-7777--------7---77--------7--44-7777------7---7------------|
A|---------------------------------------------------------------|
D|---------------------------------------------------------------|

I DON'T KNOW MUCH...
e|-----------------------------------------5-----------5-5---      -----------------|
B|-5-3-5-7---5-3-5-7-5-3---------5-3----------5-3------------      -3-5-7-7/10-7~---|
G|------------------------4-2---------4-2---------4---------- 2x   -----------------|
D|----------------------------------------------------------- Then -----------------|
A|-----------------------------------------------------------      -----------------|
D|-----------------------------------------------------------      -----------------|

AND THE END
e|----------------------------------------------------------------------------------------------|
B|-3h5-3h5-3~---3h5-3~--3h5-3h5-3--3h5-3h5--------3h5-3h5-3--3h5-3h5-3-----7p5-7p5-7p5\3/5-3~---|
G|------------------------------------------7/9-------------------------------------------------|
D|------------------------------------------x-x-------------------------------------------------|
A|------------------------------------------5/7-------------------------------------------------|
D|----------------------------------------------------------------------------------------------|
Suggest correction new What's this?
You can suggest a correction to this tab. Community and Mods will review your correction and vote to approve or reject it.
comments
We did not receive enough feedback on this tab! Please rate:
print report bad tab
1 2 3 4 5
guest
You may want to rate the tab now too:
select rating
Please do not post tabs as comments. Select "correction" instead!