Oops, an error
Loading. Please wait.
We have an official Americas Suitehearts tab made by UG professional guitarists. Check out the tab »
×
3,253 views 1 this week
15 commentsread comments
1 2 3 4 5
x 7
add to favorites
launch autoscroll
font size
0
reset
how to read this tab
guitar tuner
backing track
0:00
0:00
×
Best way to learn
"Americas Suitehearts"
Autoscroll
slow
fast
+/-
esc
set tempo
stop
                    Fall Out Boy - America's Suitehearts

Tuning: Dropped D


I got tired of seeing wrong tabs so hears just about as right as it gets

And be aware that I tab more than three guitars because FOB does multi-track recording, 
even tho they only have to guitars they will have three parts in one riff at times. And 
understand the rhythms in my tabs are hard to figure out, but if you already know 
them, it shouldn't be a problem.

     -------------------------------Intro---------------------

Guitar One
                                 "You could have..."
e|----------------------------------|
B|----------------------------------|
G|--6------7------6------7------7\--|     Lots of tremelo picking.
D|--x-64xs-x-32xs-x-32xs-x-16xs-x---|
A|--4------5------4------5------5\--|
D|----------------------------------|

Guitar Two

e|------------------------------------|
B|------------------------------------|
G|----------------9------10------10\--|
D|----------------x-32xs--x-16xs--x---|
A|----------------7-------8-------8\--|
D|------------------------------------|

Guitar Three

e|-------------------------------------|
B|--10----------------------------10\--|
G|---x-144xs-----------------------x---|      This guitar is a little
D|---7-----------------------------7\--|      hard to hear, but you can
A|-------------------------------------|      really hear it with headphones.
D|-------------------------------------|

--------------------------------Verse-----------------------------

Guitar one
                                     "Knocked Me Out..."
e|-----------------------------------|
B|---------55-77-----77----77-7------|
G|-----------------------------------|
D|--44-77--------7~-----7~-------7~--|
A|-----------------------------------|
D|-----------------------------------|
                                       2xs
e|-----------------------------------|
B|---------55-77-----77----77-7--8~--|
G|-----------------------------------|
D|--44-77--------7~-----7~-----------|
A|-----------------------------------|
D|-----------------------------------|

Guitar 2

e|--2-xx-2-xx-2-x-2-x-2--2-xx-2-xx-2-x-2-x-2--|
B|--3-xx-3-xx-3-x-3-x-3--2-xx-2-xx-2-x-2-x-2--|
G|--2-xx-2-xx-2-x-2-x-2--2-xx-2-xx-2-x-2-x-2--|
D|--------------------------------------------|
A|--------------------------------------------|
D|--------------------------------------------|
                                                  2xs
e|--2-xx-2-xx-2-x-2-x-2--2-xx-2-xx-2-x-2-x-2--|
B|--3-xx-3-xx-3-x-3-x-3--2-xx-2-xx-2-x-2-x-2--|
G|--4-xx-4-xx-4-x-4-x-4--2-xx-2-xx-2-x-2-x-2--|
D|--------------------------------------------|
A|--------------------------------------------|
D|--------------------------------------------|

-------------------------------Pre-Chorus------------------------------

Guitar 4&5
                                      "What, hut, hut, hike, media, blitz"
e|---------------------------------|----------------------|
B|---------------------------------|----------------------|
G|---------------------------------|----------------------|
D|---------------------------------|2xs--5-----5~---------|
A|--x9-7--2-22-22-22-9-99-99-99-7--|-----5-5-5-5~---------|
D|--x9-7--2-22-22-22-9-99-99-99-7--|-----5-5-5-5~---/17\--|
PM        * ** ** ** * ** ** *             * *

Guitar 1

e|------------------------------------------------|--------------------|
B|------7-7----7-------------10-10-----10-107107~-|--------------------|
G|--9h7----9h7----9h7----9h7------9h7-------------|2xs--7/9/11/14/11~--|
D|-----7------7--7---9h7----9--------9------------|--------------------|
A|------------------------------------------------|--------------------|
D|------------------------------------------------|--------------------|
PM     *      *  *

---------------------------------Chorus------------------------------------

Guitar 4&5    (2xs for guitar 5)
                                                "Suitehearts, I must confess"
e|--------------------------------------------------------------|
B|--------------------------------------------------------------|
G|------7\------7\-----7\------7/9-----7\-----7\----------------|
D|--000-x---000-x--999-x---999-x---777-x--777-x---99-77-55-77~--|
A|--000-5\-0000-5\-999-5\-9999-5/7-555-5\-555-5\-099-77-55-77~--|
D|--000----0000----999----9999-----555----555----099-77-55-77~--|

Guitar 1
                   "Sins, lets hear it for america's suitehearts"
e|-----------------------------------------------------|
B|-----------------------------------------------------| continue throughout
G|----------------9-11h9-11h9-11h9-11h9-11h9-11h9-11h9-| the chorus
D|--------------12-------------------------------------|
A|-----------------------------------------------------|
D|-----------------------------------------------------|

Guitar 3

e|------|
B|--10--|
G|---x--|     In 8th notes throughout the chorus. kind of hard to hear.
D|---7--|
A|------|
D|------|

Guitar 4
                                "America's Suitehearts" 2nd time
e|---------------------------------------------------------------------|
B|---------------------------------------------------------------------|
G|------11\------11\-----11\------11/12-----11\-----11\----------------|
D|--000--x---000--x--999--x---999--x----777--x--777--x---99-77-55-77~--|
A|--000--9\-0000--9\-999--9\-9999--9/10-555--9\-555--9\-099-77-55-77~--|
D|--000-----0000-----999-----9999-------555-----555-----099-77-55-77~--|

------------------------------------Verse-----------------------------------

Guitar 4&5

e|-----|
B|-----|
G|-----|
D|-----|
A|--0--|
D|--0--|
PM  *

Guitar one
                                     "You can bow and pretend..."
e|-----------------------------------|
B|---------55-77-----77----77-7------|     (Be sure to rest at
G|-----------------------------------|       "You don't know your a legend")
D|--44-77--------7~-----7~-------7~--|
A|-----------------------------------|
D|-----------------------------------|
                                       2xs
e|-----------------------------------|
B|---------55-77-----77----77-7--8~--|
G|-----------------------------------|
D|--44-77--------7~-----7~-----------|
A|-----------------------------------|
D|-----------------------------------|

Guitar 2

e|--2-xx-2-xx-2-x-2-x-2--2-xx-2-xx-2-x-2-x-2--|
B|--3-xx-3-xx-3-x-3-x-3--2-xx-2-xx-2-x-2-x-2--|
G|--2-xx-2-xx-2-x-2-x-2--2-xx-2-xx-2-x-2-x-2--|
D|--------------------------------------------|
A|--------------------------------------------|
D|--------------------------------------------|
                                                  2xs
e|--2-xx-2-xx-2-x-2-x-2--2-xx-2-xx-2-x-2-x-2--|
B|--3-xx-3-xx-3-x-3-x-3--2-xx-2-xx-2-x-2-x-2--|
G|--4-xx-4-xx-4-x-4-x-4--2-xx-2-xx-2-x-2-x-2--|
D|--------------------------------------------|
A|--------------------------------------------|
D|--------------------------------------------|

-------------------------------Pre-Chorus------------------------------

Guitar 4&5
                                      "What, hut, hut, hike, media, blitz"
e|---------------------------------|----------------------|
B|---------------------------------|----------------------|
G|---------------------------------|----------------------|
D|---------------------------------|2xs--5-----5~---------|
A|--x9-7--2-22-22-22-9-99-99-99-7--|-----5-5-5-5~---------|
D|--x9-7--2-22-22-22-9-99-99-99-7--|-----5-5-5-5~---/17\--|
PM        * ** ** ** * ** ** *             * *

Guitar 1

e|------------------------------------------------|--------------------|
B|------7-7----7-------------10-10-----10-107107~-|--------------------|
G|--9h7----9h7----9h7----9h7------9h7-------------|2xs--7/9/11/14/11~--|
D|-----7------7--7---9h7----9--------9------------|--------------------|
A|------------------------------------------------|--------------------|
D|------------------------------------------------|--------------------|
PM     *      *  *

---------------------------------Chorus------------------------------------

Guitar 4&5    (2xs for guitar 5)
                                                "Suitehearts, I must confess"
e|--------------------------------------------------------------|
B|--------------------------------------------------------------|
G|------7\------7\-----7\------7/9-----7\-----7\----------------|
D|--000-x---000-x--999-x---999-x---777-x--777-x---99-77-55-77~--|
A|--000-5\-0000-5\-999-5\-9999-5/7-555-5\-555-5\-099-77-55-77~--|
D|--000----0000----999----9999-----555----555----099-77-55-77~--|

Guitar 1
                   "Sins, lets hear it for america's suitehearts"
e|-----------------------------------------------------|
B|-----------------------------------------------------| continue throughout
G|----------------9-11h9-11h9-11h9-11h9-11h9-11h9-11h9-| the chorus
D|--------------12-------------------------------------|
A|-----------------------------------------------------|
D|-----------------------------------------------------|

Guitar 3

e|------|
B|--10--|
G|---x--|     In 8th notes throughout the chorus. kind of hard to hear.
D|---7--|
A|------|
D|------|

Guitar 4
                                "America's Suitehearts" 2nd time
e|---------------------------------------------------------------------|
B|---------------------------------------------------------------------|
G|------11\------11\-----11\------11/12-----11\-----11\----------------|
D|--000--x---000--x--999--x---999--x----777--x--777--x---99-77-55-77~--|
A|--000--9\-0000--9\-999--9\-9999--9/10-555--9\-555--9\-099-77-55-77~--|
D|--000-----0000-----999-----9999-------555-----555-----099-77-55-77~--|

-------------------------------Bridge-----------------------------------

Guitar 1
                        "Knocked me out..."         "Let's hear it..."
e|-----------------|-------------------------------------|
B|-----------------|-------------------------------------|
G|--6------7-------|-----6------7------6------7------7\--|
D|--x-32xs-x-32xs--|2xs--x-32xs-x-32xs-x-32xs-x-16xs-x---|
A|--4------5-------|-----4------5------4------5------5\--|
D|-----------------|-------------------------------------|

Guitar 2

e|-----------------|--------------------------------------|
B|-----------------|--------------------------------------|
G|-----------------|----9------10------9------10-----10\--|
D|-----------------|----x-32xs--x-32xs-x-32xs--x-16s--x---|
A|-----------------|----7-------8------7-------8------8\--|
D|-----------------|--------------------------------------|

Guitar 3

e|-----------------|---------------------------------------|
B|--10-------------|----------------------------------10\--|
G|---x-240xs-------|-----------------------------------x---|
D|---7-------------|-----------------------------------7\--|
A|-----------------|---------------------------------------|
D|-----------------|---------------------------------------|

Guitar 4&5

e|---------------|-----------------------------------------|
B|---------------|-----------------------------------------|
G|---------------|-----------------------------------------|
D|---------------|7.5xs------------------------------------|
A|--7-7--7-7--7--|-------------------------------------7\--|
D|--7-7--7-7--7--|-------------------------------------7\--|
PM  * *  * *  *

---------------------------------Chorus------------------------------------

Guitar 4&5    (3xs for guitar 5)
                                                "Suitehearts, I must confess"
e|--------------------------------------------------------------|
B|--------------------------------------------------------------|
G|------7\------7\-----7\------7/9-----7\-----7\----------------|
D|--000-x---000-x--999-x---999-x---777-x--777-x---99-77-55-77~--|
A|--000-5\-0000-5\-999-5\-9999-5/7-555-5\-555-5\-099-77-55-77~--|
D|--000----0000----999----9999-----555----555----099-77-55-77~--|

Guitar 1
                   "Sins, lets hear it for america's suitehearts"
e|-----------------------------------------------------|
B|-----------------------------------------------------| continue throughout
G|----------------9-11h9-11h9-11h9-11h9-11h9-11h9-11h9-| the chorus
D|--------------12-------------------------------------|
A|-----------------------------------------------------|
D|-----------------------------------------------------|

Guitar 3

e|------|
B|--10--|
G|---x--|     In 8th notes throughout the chorus. kind of hard to hear.
D|---7--|
A|------|
D|------|

Guitar 4
                                "America's Suitehearts" 2nd and 3rd time
e|---------------------------------------------------------------------|
B|---------------------------------------------------------------------|
G|------11\------11\-----11\------11/12-----11\-----11\----------------|
D|--000--x---000--x--999--x---999--x----777--x--777--x---99-77-55-77~--|
A|--000--9\-0000--9\-999--9\-9999--9/10-555--9\-555--9\-099-77-55-77~--|
D|--000-----0000-----999-----9999-------555-----555-----099-77-55-77~--|

------------------------------------Outro-------------------------------

Guitar 1

e|-----------------|
B|-----------------|
G|-----------------|
D|--000--0000~-----|
A|--000--0000~-----|
D|--000--0000~-----|
PM  ***  ****


And there it is! enjoy
Suggest correction
comments
print report bad tab
15 comments total. Showing first comments.
+1 reply
susztainer 10 Apr 27, 2009 12:28 PM

check out the other version....yours is f*cking hard to read....NOOB

-2 reply
pnkr0cker 1,989 Apr 27, 2009 04:01 PM

im not a noob dude. and if it's so hard to read, then why did four people say yes and no people said no? I said it can be hard, but this is way more accurate than anybody elses. btw i have a gp5 version3

0 reply
xpatrickstumpx 10 Apr 27, 2009 10:48 PM

this is good as man nice job and its easy to read

guest
You may want to rate the tab now too:
select rating
Wanna post a correction for this tab? Suggest correction