Oops, an error
Loading. Please wait.

Americas Suitehearts Tab

version 6
version 6
919 views 6 this week
no commentswrite comment
1 2 3 4 5
please rate
add to favorites
launch autoscroll
font size
0
reset
how to read this tab
guitar tuner
Autoscroll
slow
fast
+/-
esc
set tempo
stop
Help us to improve Ultimate-Guitar.com Take our survey!
×
Author
----------------------------------------------------------------------------                  
America's Suitehearts REMIX - Fall Out Boy
----------------------------------------------------------------------------
Tabbed by: WhyButYeah
Email: chu_john62066@yahoo.com

READ THIS FIRST!!!!!!!: Okay this is a tab for a remix that i made on this video.

http://www.youtube.com/watch?v=L3P0i0aRjHY



Tuning: Drop D

Verse
Guitar 1
e|----------------------------|
B|----------------------------|
G|----------------------------|
D|----------------------------| 2x
A|-0------9------5------7-----|
D|-0-16x--9-16x--5-16x--7-16x-|
pm .      .      .      .

Verse 2
Guitar 1
e|------------------------|
B|------------------------|
G|-4----------------------|
D|-4-8x--5-----0-----5----| 2x
A|-2-----5-8x--0-8x--5-8x-|
D|-------5-----0-----5----|

Verse 2
Guitar 2
e|-------------------------|
B|-------------------------|
G|-9-----7-----11-----7----|
D|-x-8x--x-8x--x--8x--x-8x-| 2x
A|-7-----5-----9------5----|
D|-------------------------|

Pre-chorus
Guitar 1
e|-------------|
B|-------------|
G|-------------|
D|-0~~-5~~-7~~-|
A|-0~~-5~~-7~~-|
D|-0~~-5~~-7~~-|

Pre-chorus
Guitar 2
e|-------------|
B|-------------|
G|11~~-7~~-9~~-|
D|-x---x---x---|
A|-9~~-5~~-7~~-|
D|-------------|

Chorus
Both Guitars
e|---------------------------------------------|
B|---------------------------------------------|
G|---------------------------------------------|
D|-0------9------5------9-----7-----5-----7----| 2x
A|-0-16x--9-16x--5-16x--9-4x--7-4x--5-4x--7-4x-|
D|-0------9------5------9-----7-----5-----7----|

Verse after 1st chorus
e|-----------|     
B|-----------|    
G|-------7---|    
D|-0-----x---| 2x 
A|-0-3x--5---|    
D|-0---------|    
pm .

e|-----------|  
B|-----------|    
G|-------7---|    
D|-0-----x---| 2x 
A|-0-3x--5---|    
D|-0---------|    
pm .

e|-----------|  
B|-----------|    
G|-------7---|    
D|-5-----x---| 2x 
A|-5-3x--5---|    
D|-5---------|    
pm .

e|-----------|  
B|-----------|    
G|-------7---|    
D|-9-----x---| 2x 
A|-9-3x--5---|    
D|-9---------|    
pm .

Repeat:
Verse 1(once)
Verse 2
Pre-chorus
Chorus

Bridge
the bridge is the same as the chorus in the original version

Chorus at the end
Both Guitars
e|---------------------------------------------|
B|---------------------------------------------|
G|---------------------------------------------|
D|-0------9------5------9-----7-----5-----7----| 
A|-0-14x--9-14x--5-14x--9-4x--7-4x--5-4x--7-4x-|
D|-0------9------5------9-----7-----5-----7----|

repeat chorus

End on
Both Guitars
e|----|
B|----|
G|----|
D|-0~-| 
A|-0~-|
D|-0~-|



| /  slide up
| \  slide down
| h  hammer-on
| p  pull-off
| ~  vibrato
| +  harmonic
| x  Mute note
| .  palm mute
Suggest correction
What's this?
You can suggest a correction to this tab. Community and Mods will review your correction and vote to approve or reject it.
comments
We did not receive enough feedback on this tab! Please rate:
print report bad tab
1 2 3 4 5
guest
You may want to rate the tab now too:
select rating
Please do not post tabs as comments. Select "correction" instead!