Oops, an error
Loading. Please wait.
We have an official Beat It tab made by UG professional guitarists. Check out the tab »
×
44,422 views 3 this week
2 commentsread comments
1 2 3 4 5
x 7
add to favorites
×
Save as Personal and add changes to this tab that will be seen only by you. Learn more ›
×
You can save this tab as Personal to edit and correct it or add notes. All changes will be seen only by you. Learn more »
launch autoscroll
font size
0
reset
how to read this tab
guitar tuner
edit
Autoscroll
slow
fast
+/-
esc
set tempo
stop
Author
-------------------------------------------------------------------------------
                             SONG NAME - Band Name
-------------------------------------------------------------------------------
Tabbed by: Phil Hall
Email: treblechamp@yahoo.com

Tuning: DADGBe

First part                         First Riff is below

. = Palm Mute

e|-0------------------------------------------------------------------------|
B|-0------------------------------------------------------------------------|
G|-0------------------------------------------------------------------------|
D|-0------0-0-0---0-0-0---------------------3---------2---0-----------------|
A|-0------0-0-0---0-0-0-----------------0--------5~~-----------3---3--------|
D|-0------0-0-0---0-0-0-------0-----3---------------------------------------|
          . . .   . . .

Second riff

e|--------------------------------------------------------------------------------|
B|--------------------------------------------------------------------------------|
G|--------------------------------------------------------------------------------|
D|---------------3--------2---0---------------------------------------------------|
A|-----------0-------5~~------------3---3-3---------------------------------------|
D|---0---3------------------------------------------------------------------------|

Positive them first two riffs are correct. Not sure about the next part through which 
during the verse. See what you think

Verse

part 1

e|---------------------------------------------------------------------------|
B|---------------------------------------------------------------------------|
G|---------------------------------------------------------------------------|
D|---0-0-0---10-10-10\----0-0-0---10-10-10\----8-8-8----10-10-10\------------|
A|---0-0-0---10-10-10\----0-0-0---10-10-10\----8-8-8----10-10-10\------------|
D|---0-0-0---10-10-10\----0-0-0---10-10-10\----8-8-8----10-10-10\------------|
     . . .    .  .  .     . . .    .  .  .     . . .     .  .  .

e|-------------------------------------------|
B|-------------------------------------------|
G|-------------------------------------------|
D|---12-12-12--10-10-10\---------------------|
A|---12-12-12--10-10-10\---------------------|
D|---12-12-12--10-10-10\---------------------|
      .  .  .   .  .  .

second part of verse this time without Palm Mute.

e|---------------------------------------------------------------------------|
B|---------------------------------------------------------------------------|
G|---------------------------------------------------------------------------|
D|---0-0-0---10-10-10\----0-0-0---10-10-10\----8-8-8----10-10-10\------------|
A|---0-0-0---10-10-10\----0-0-0---10-10-10\----8-8-8----10-10-10\------------|
D|---0-0-0---10-10-10\----0-0-0---10-10-10\----8-8-8----10-10-10\------------|


e|-------------------------------------------|
B|-------------------------------------------|
G|-------------------------------------------|
D|---12-12-12--10-10-10\---------------------|
A|---12-12-12--10-10-10\---------------------|
D|---12-12-12--10-10-10\---------------------|

Throw in a few muted notes like on the song also inbetween parts

e|-----------------------|
B|-----------------------|
G|-----------------------|
D|---x-x-x---------------|
A|---x-x-x---------------|
D|---x-x-x---------------|

Second part also has something like this playing over the top

e|-----------------------------|
B|-----------------------------|
G|-----------------------------|
D|---15---13----------13-------|
A|--------------15-------------|
D|-----------------------------|
      .    .     .     .


Chorus

Please see

First Riff &
Second Riff

Chorus is just a repeat of these

Not done the solo yet but if anyone wants to add it feel free.

| /  slide up
| \  slide down
| h  hammer-on
| p  pull-off
| ~  vibrato
| +  harmonic
| x  Mute note
===============================================================================
Suggest correction
Creating personal tab
Creating personal tab
You can edit any tab online and save it as your Personal.

You can edit, replace or remove any tab part or add personal notes – all changes will be seen only by you.

Personal tabs can be accessed anytime from any device, even offline.
Learn more »
comments
print report bad tab
2 comments total.
0 reply
pnkr0cker 2,010 Mar 13, 2008 05:05 PM

second part goes like this

e|-------------------------------|
B|-------------------------------|
G|--x-xx12-xx12-----xx12-xx12----|
D|--x-xx12-xx1214---xx12-xx12----|
A|-------------14------------14--|
D|-------------------------------|

they either played like this or two frets down. the original is 1 step down tunning

0 reply
caseyt 10 Apr 01, 2008 05:13 PM

nice tab. but if you want to beef it up a little, you can do this:

-----------------------------------------------------
-----------------------------------------------------
-----------------------------------------------------
--------------3----------1/2----0--------------------
----------0-------5~~5---------------3---3~~---------
--0---3----------------------------------------------

guest
You may want to rate the tab now too:
select rating
Wanna post a correction for this tab? Suggest correction