Oops, an error
Loading. Please wait.
We have an official Beat It tab made by UG professional guitarists. Check out the tab »
×
33,501 views 18 this week
7 commentsread comments
1 2 3 4 5
x 12
add to favorites
×
Save as Personal and add changes to this tab that will be seen only by you. Learn more ›
×
You can save this tab as Personal to edit and correct it or add notes. All changes will be seen only by you. Learn more »
launch autoscroll
font size
0
reset
guitar tuner
edit
Autoscroll
slow
fast
+/-
esc
set tempo
stop
----------------------------------------------------------------------------
			     Beat It - Fall Out Boy
----------------------------------------------------------------------------

Tabbed By : Harley Fay
e-mail: wefay@charter.net

Tuning: Drop D

Intro x6 (listen closely for timing, goes with bass drum)
G|------|
D|------|
A|------|
D|--12/-|

Intro Cont. (Guitar plays twice then bass comes in) X2
G|-------------------------------------------|
D|-------------------------------------------|
A|3-3------8-5-7-5-33---------8-5-7-5-3-33---|
D|----0-3-7-------------0-3-7----------------|

Verse X2
G|--------------------------------------------------------------|
D|--------------------------------------------------------------|
A|--------------------------------------------------------------|
D|---0-0-0---10-10-10/---0-0-0---10-10-10/---8-8-8---10-10-10---|

G|--------------------------------------------|
D|--------------------------------------------|
A|--------------------------------------------|
D|---12-12-12---10-10-10----------------------|

Chorus X3
G|-------------------------------------------|
D|-------------------------------------------|
A|---------8-5-7-5-33---------8-5-7-5-3-33---|
D|----0-3-7-------------0-3-7----------------|

Verse X2
G|--------------------------------------------------------------|
D|--------------------------------------------------------------|
A|--------------------------------------------------------------|
D|---0-0-0---10-10-10/---0-0-0---10-10-10/---8-8-8---10-10-10---|

G|--------------------------------------------|
D|--------------------------------------------|
A|--------------------------------------------|
D|---12-12-12---10-10-10----------------------|
Chorus X3
G|-------------------------------------------|
D|-------------------------------------------|
A|---------8-5-7-5-33---------8-5-7-5-3-33---|
D|----0-3-7-------------0-3-7----------------|

Interlude X3
G|----------------------|
D|----------------------|
A|----------------------|
D|--000X-000~-000X-000X-|

Interlude Cont.
G|----------------------|
D|----------------------|
A|----------------------|
D|--000X-000~-000X-000~-|

Solo X2
G|------------------------------------------------------------|
D|------------------------------------------------------------|
A|------------------------------------------------------------|
D|---0-0-0---10-10-10---0-0-0---10-10-10---8-8-8---10-10-10---|

G|--------------------------------------------|
D|--------------------------------------------|
A|--------------------------------------------|
D|---12-12-12---10-10-10----------------------|

Chorus X8
G|-------------------------------------------|
D|-------------------------------------------|
A|---------8-5-7-5-3-33---------8-5-7-5-33---|
D|----0-3-7-------------0-3-7----------------|

/=slide down
x=palm mute
~=let ring

 

            
            
Suggest correction
Creating personal tab
Creating personal tab
You can edit any tab online and save it as your Personal.

You can edit, replace or remove any tab part or add personal notes – all changes will be seen only by you.

Personal tabs can be accessed anytime from any device, even offline.
Learn more »
comments
print report bad tab
7 comments total. Showing first comments.
+4 reply
Jimmyiscool 20 Jul 08, 2008 06:25 AM

Good tab, only problem is Pete never plays anything even close to this difficulty. He's kinda awful...

+3 reply
Harley Fay 654 Jul 09, 2008 04:40 PM

how was this a bad tab? Why don't you learn to spell

+3 reply
supperbass 30 Jul 13, 2008 09:25 PM

It sounds about perfect, I think you made it seeme a little more complicated than it realy is though. I like it.

guest
You may want to rate the tab now too:
select rating
Wanna post a correction for this tab? Suggest correction