Oops, an error
Loading. Please wait.
We have an official Beat It tab made by UG professional guitarists. Check out the tab »
×
27,271 views 1 this week
7 commentsread comments
1 2 3 4 5
x 5
add to favorites
×
Save as Personal and add changes to this tab that will be seen only by you. Learn more ›
×
You can save this tab as Personal to edit and correct it or add notes. All changes will be seen only by you. Learn more »
launch autoscroll
font size
0
reset
guitar tuner
edit
Autoscroll
slow
fast
+/-
esc
set tempo
stop
	     Beat it---fall out boy

Tabbed By : Dom p

Tuning: dropped d
into
G|-------------------------------------------------------|
D|------3--0-2-0-----------------------------------------|
A|-----3---------3-3-------------------------------------|
E|-0-3---------------------------------------------------|


G|-------------------------------------------------------|
D|------3-0-2-0------------------------------------------|
A|-----3---------3-3-3-----------------------------------|
E|-0 3---------------------------------------------------|


Verse 1
G|--------------------------------------------------------|
D|--------------------------------------------------------|
A|----333/---333------------------------------------------|
E|000----000----------------------------------------------|

G|--------------------------------------------------------|
D|--------------------------------------------------------|
A|--111--333--------333-----------------------------------|
E|------------000-----------------------------------------|

G|--------------------------------------------------------|
D|--------------------------------------------------------|
A|-------333-----333--------------------------------------|
E|--000------000------------------------------------------|

G|--------------------------------------------------------|
D|--------------------------------------------------------|
A|--111--333--------333-----------------------------------|
E|------------000-----------------------------------------|


Chorus same as  intro

| /  slide up
| \  slide down


this is  my first tab so soz if it is wrong

but u must tune ur bass to dropped  d  to make it sound right

            
            
Suggest correction
Creating personal tab
Creating personal tab
You can edit any tab online and save it as your Personal.

You can edit, replace or remove any tab part or add personal notes – all changes will be seen only by you.

Personal tabs can be accessed anytime from any device, even offline.
Learn more »
comments
print report bad tab
7 comments total. Showing first comments.
-1 reply
Harley Fay 654 Jul 10, 2008 08:52 AM

I don't even know how this made it onto this site, it's wrong

-1 reply
rlykng08 51 Jul 15, 2008 05:50 AM

yeah...dude that's not right...

+2 reply
EMOBassist808 72 Sep 20, 2008 01:27 AM

haha dude its pretty much perfect. nice 5/5

guest
You may want to rate the tab now too:
select rating
Wanna post a correction for this tab? Suggest correction