Oops, an error
Loading. Please wait.
We have an official Champagne For My Real Friends Real Pain For My Sham Friends tab made by UG professional guitarists. Check out the tab »
×

Champagne For My Real Friends Real Pain For My Sham Friends intro tab

1,166 views 1 this week
3 commentsread comments
1 2 3 4 5
x 9
add to favorites
×
Save as Personal and add changes to this tab that will be seen only by you. Learn more ›
×
You can save this tab as Personal to edit and correct it or add notes. All changes will be seen only by you. Learn more »
launch autoscroll
font size
0
reset
how to read this tab
guitar tuner
edit
Autoscroll
slow
fast
+/-
esc
set tempo
stop
Author
Tabbed By Abe
e-mail: skullprototype@yahoo.com

Key Legend
x mute
/\ slide back and forth

Heres The intro to Track 9 of Fall Out Boy's new cd

e-----------77---------77--------|
B----33-55------33-55------7/8\7-| <--4 times
G--------------------------------|
D--------------------------------|
A--------------------------------|
E--------------------------------|


e|--------------------------------------|
B|--------------------------------------|
G|--55-55-5--55-55-5--44-44-4--55-55-5--|
D|--xx-xx-x--xx-xx-x--xx-xx-x--xx-xx-x--| <--2 times
A|--xx-xx-x--55-55-5--xx-xx-x--xx-xx-x--|
E|--55-55-5-----------33-33-3--55-55-5--|

e|--------------------------------------|
B|--------------------------------------|  
G|--66-66-6--55-55-5--44-44-4--55-55-5--|
D|--xx-xx-x--xx-xx-x--xx-xx-x--xx-xx-x--|
A|--xx-xx-x--55-55-5--xx-xx-x--55-55-5--|
E|--55-55-5-----------33-33-3-----------|

e|--------------------------------------|
B|--------------------------------------|
G|--55-55-5--55-55-5--44-44-4--55-55-5--|
D|--xx-xx-x--xx-xx-x--xx-xx-x--xx-xx-x--| 
A|--xx-xx-x--55-55-5--xx-xx-x--xx-xx-x--|
E|--55-55-5-----------33-33-3--55-55-5--|

e|--------------------------------------|
B|--------------------------------------|  
G|--66-66-6--55-55-5--44-44-4--55-55-5--|
D|--xx-xx-x--xx-xx-x--xx-xx-x--xx-xx-x--|
A|--xx-xx-x--55-55-5--xx-xx-x--55-55-5--|
E|--55-55-5-----------33-33-3-----------|

            
            
Suggest correction
Creating personal tab
Creating personal tab
You can edit any tab online and save it as your Personal.

You can edit, replace or remove any tab part or add personal notes – all changes will be seen only by you.

Personal tabs can be accessed anytime from any device, even offline.
Learn more »
comments
print report bad tab
3 comments total.
-1 reply
guitartabber754 10 Oct 21, 2006 01:34 PM

sorry but the intro is wrong this how they play it
|- - - - - - - 12 12- - - - 12 12- - - - - - - - - - - -|
|- - - - - 9 9- - - - - -9 9 - - -11h12p11 - - - - - - -|
|- - 12 12- - - - - 12 12- - - - - - - - - - - - - - - -|
|- - - - - - - - - - - - - - - - - - - - - - - - - - - -|
|- - - - - - - - - - - - - - - - - - - - - - - - - - - -|
|- - - - - - - - - - - - - - - - - - - - - - - - - - - -|

0 reply
lucky9182 10 Aug 14, 2008 08:55 AM

hey um can anyone give the full song.well no one has yet buti will

0 reply
gtr.man95 31 Jul 11, 2010 04:23 PM

@guitartabber754

That sounds terrible! He's right. Only I play it like this:

e|--------7-7---------7-7-----------|
A|------------------------7-8-7h8p7-|
G|7-7-9-9-----7-7-9-9---------------|
D|----------------------------------|
A|----------------------------------|
E|----------------------------------|

guest
You may want to rate the tab now too:
select rating
Wanna post a correction for this tab? Suggest correction