Oops, an error
Loading. Please wait.
We have an official Dance Dance tab made by UG professional guitarists. Check out the tab »
×
440,507 views 795 this week
65 commentsread comments
1 2 3 4 5
x 253
add to favorites
×
Save as Personal and add changes to this tab that will be seen only by you. Learn more ›
×
You can save this tab as Personal to edit and correct it or add notes. All changes will be seen only by you. Learn more »
launch autoscroll
font size
0
reset
guitar tuner
backing track
0:00
0:00
edit
Autoscroll
slow
fast
+/-
esc
set tempo
stop
Author
Standard Tuning

[Intro]
0:04  

G|---------------------------------|
D|---------------------------------|x6
A|--2--2-5~-5---------5~-5---------|
E|-----------55--3--3-----55-------|


[Pre-Chorus]

G|---------------------------------|
D|---------------------------------|x2
A|--2222-55--------55--------------|
E|---------55-3333---55------------|


[Chorus]

G|---------------------------------|
D|---------------------------------|x4
A|--2222-5555--------00------------|
E|------------3333-22--------------|


[Intro]

G|---------------------------------|
D|---------------------------------|x2
A|--2--2-5~-5---------5~-5---------|
E|-----------55--3--3-----55-------|

|pause|

then..
G|--------------------------------------|
D|--------------------------------------|
A|------5~-5---2--2-5~-5--------5~-5----|
E|-3--3-----55----------55-3--3-----55--|


[Pre-Chorus]

G|---------------------------------|
D|---------------------------------|x2
A|--2222-5~-5---------5~-5---------|
E|-----------55--3333-----55-------| 
 

[Chorus]

G|---------------------------------|
D|---------------------------------|x4
A|--2222-5555--------00------------|
E|------------3333-22--------------|


[Bridge] x3

G|-------------------------------------|
D|-------------------------------------|
A|-22222222-00000000-------------------|
E|-------------------22222222-33333333-|

G|---------------------------------|
D|---------------------------------|
A|-9999999999999999----------------|
E|---------------------------------|


[Chorus]

G|---------------------------------|
D|---------------------------------|x6
A|--2222-5555--------00------------|
E|------------3333-22--------------|


[Intro]

G|---------------------------------|
D|---------------------------------|x4
A|--2--2-5~-5---------5~-5---------|
E|-----------55--3--3-----55-------|


************************************

| ~  Vibrato

************************************

            
            
Suggest correction
Creating personal tab
Creating personal tab
You can edit any tab online and save it as your Personal.

You can edit, replace or remove any tab part or add personal notes – all changes will be seen only by you.

Personal tabs can be accessed anytime from any device, even offline.
Learn more »
comments
print report bad tab
65 comments total. Showing first comments.
+4 reply
authoritah 40 Oct 13, 2005 04:06 AM

This tab is awesome it might not be correct but it sounds good

+2 reply
flea-is-god 10 Oct 17, 2005 02:37 PM

i enjoy

+7 reply
flea-is-god 10 Oct 17, 2005 02:38 PM

fob is jpretty amazing

guest
You may want to rate the tab now too:
select rating
Wanna post a correction for this tab? Suggest correction