Oops, an error
Loading. Please wait.
We have an official Dance Dance tab made by UG professional guitarists. Check out the tab »
×
35,988 views 39 this week
13 commentsread comments
1 2 3 4 5
x 35
add to favorites
×
Save as Personal and add changes to this tab that will be seen only by you. Learn more ›
×
You can save this tab as Personal to edit and correct it or add notes. All changes will be seen only by you. Learn more »
launch autoscroll
font size
0
reset
guitar tuner
backing track
0:00
0:00
edit
Autoscroll
slow
fast
+/-
esc
set tempo
stop
Author
Difficulty
Intro (0:04)

G|--------------------------------------|
D|--------------------------------------|
A|-2-2-5~-0-----5~-0--2-2-5~-0-----5~-0-| 3x
E|----------3-3----------------3-3------|

Pre-chorus (0:29)

G|-----------------------------------------------------------------|
D|-----------------------------------------------------------------|
A|-2-2-2-2-5-5-0-0---------5-5-0-0-2-2-2-2-5-5-0-0---------5-5-0-0-|
E|-----------------3-3-3-3-------------------------3-3-3-3---------|

*REST until :40*
Chorus

G|---------------------------------|
D|---------------------------------| 4x
A|-2-2-2-2-5-5-5-5-------------0-0-|
E|-----------------3-3-3-3-2-2-----|

G|--------------------------------------|
D|--------------------------------------|
A|-2-2-5~-0-----5~-0--2-2-5~-0-----5~-0-|
E|----------3-3----------------3-3------|

*REST until 1:06*

Verse

G|----------------------------|
D|----------------------------|
A|-----5~-0-2-2-5~-0-----5~-0-|
E|-3-3---------------3-3------|

Pre-chorus

G|-----------------------------------------------------------------|
D|-----------------------------------------------------------------|
A|-2-2-2-2-5-5-0-0---------5-5-0-0-2-2-2-2-5-5-0-0---------5-5-0-0-|
E|-----------------3-3-3-3-------------------------3-3-3-3---------|

G|-------------------|
D|-------------------|
A|-2-2-5~-0-----5~-0-|
E|----------3-3------|

*REST until 1:30*
Chorus

G|---------------------------------|
D|---------------------------------| 4x
A|-2-2-2-2-5-5-5-5-------------0-0-|
E|-----------------3-3-3-3-2-2-----|

Bridge

G|----------------------|
D|----------------------| 3x
A|-2~----0~----------5~-|
E|-------------3~-------|

*Rest until 2:16*
Chorus

G|---------------------------------|
D|---------------------------------| 6x
A|-2-2-2-2-5-5-5-5-------------0-0-|
E|-----------------3-3-3-3-2-2-----|

Outro/Intro

G|--------------------------------------|
D|--------------------------------------|
A|-2-2-5~-0-----5~-0--2-2-5~-0-----5~-0-| 2x
E|----------3-3----------------3-3------|

I am positive that this is correct.
It's an easy song so have fun!
Suggest correction
Creating personal tab
Creating personal tab
You can edit any tab online and save it as your Personal.

You can edit, replace or remove any tab part or add personal notes – all changes will be seen only by you.

Personal tabs can be accessed anytime from any device, even offline.
Learn more »
comments
print report bad tab
13 comments total. Showing first comments.
0 reply
Masterbasser36 651 May 12, 2006 08:42 PM

a 0 on the a? wow, thats off

0 reply
blinkrocks 127 Jun 11, 2006 02:38 PM

yeah it is off it should be played

A-2-2-5*-5-5-0----5*-5-0-0
E--------------3-3-------- if you dont have distorstion turn you tone nob down all the way

*ring out

+1 reply
MuDvAyNe_rOcKs 10 Feb 23, 2007 01:53 PM

try playin it like dis sounds good to me.

G|--------------------------|
D|--------------------------|
A|-2x2x5--5--------5--5-----|
E|---------555-3x3x-----555-|

dats how i play it.

guest
You may want to rate the tab now too:
select rating
Wanna post a correction for this tab? Suggest correction