Oops, an error
Loading. Please wait.
We have an official Dance Dance tab made by UG professional guitarists. Check out the tab »
×
436 views 1 this week
1 commentread comment
1 2 3 4 5
2 more votes to show rating
add to favorites
×
Save as Personal and add changes to this tab that will be seen only by you. Learn more ›
×
You can save this tab as Personal to edit and correct it or add notes. All changes will be seen only by you. Learn more »
launch autoscroll
font size
0
reset
how to read this tab
guitar tuner
backing track
0:00
0:00
edit
Autoscroll
slow
fast
+/-
esc
set tempo
stop
Author
Difficulty
-------------------------------------------------------------------------------
                             Dance, Dance - Fall Out Boy
-------------------------------------------------------------------------------

Tuning: EADGBE

Verse (lead): Repeat 4 times

e|---------------------------------------------------------------------------|
B|---------------------------------------------------------------------------|
G|---------------------------------------------------------------------------|
D|--11-9----11-9----12-------------------------------------------------------|
A|-------9-------9-----9-----------------------------------------------------|
E|---------------------------------------------------------------------------|
PM   . . .   . . .   . .

Pre-Chorus (lead and rhythm): Repeat 4 times
e|---------------------------------------------------------------------------|
B|---------------------------------------------------------------------------|
G|---------------------------------------------------------------------------|
D|----------0-0-4-4-2-4------------------------------------------------------|
A|--2-2-4-4------------------------------------------------------------------|
E|---------------------------------------------------------------------------| 

Pre-Chorus Part 2 (lead):
e|---------------------------------------------------------------------------|
B|---------------------------------------------------------------------------|
G|---------------------------------------------------------------------------|
D|--11-9----11-9----12-------------------------------------------------------|
A|-------9-------9-----9-----------------------------------------------------|
E|---------------------------------------------------------------------------|
PM   . . .

Chorus (lead): Repeat 4 times
e|---------------------------------------------------------------------------|
B|---------------------------------------------------------------------------|
G|-4-4-4-4-7-7-7-7-7-7-9-9-9-9-9-9-6-6-9-9-9-9-------------------------------|
D|---------------------------------------------------------------------------|
A|-2-2-2-2-5-5-5-5-5-5-7-7-7-7-7-7-4-4-7-7-7-7-------------------------------|
E|---------------------------------------------------------------------------|

Chorus (rhythm): Repeat 4 times
e|---------------------------------------------------------------------------|
B|---------------------------------------------------------------------------|
G|--4-4-4-4-4-4-4-4-7-7-7-7-7-7-7-7-------------------------3-3-3-3----------|
D|--4-4-4-4-4-4-4-4-7-7-7-7-7-7-7-7-5-5-5-5-5-5-5-5-4-4-4-4-3-3-3-3----------|
A|--2-2-2-2-2-2-2-2-5-5-5-5-5-5-5-5-5-5-5-5-5-5-5-5-4-4-4-4-1-1-1-1----------|
E|----------------------------------3-3-3-3-3-3-3-3-2-2-2-2------------------|

Verse 2 (lead): Repeat 4 times, rest, then repeat 3 times
e|---------------------------------------------------------------------------|
B|---------------------------------------------------------------------------|
G|---------------------------------------------------------------------------|
D|--11-9----11-9----12-------------------------------------------------------|
A|-------9-------9-----9-----------------------------------------------------|
E|---------------------------------------------------------------------------|
PM   . . .   . . .   . .

Verse 2 (rhythm): Repeat 1 time
e|----------------------------------------------------------------------------------------------------------|
B|----------------------------------------------------------------------------------------------------------|
G|----------------------------------------------------------------------------------------------------------|
D|----------------------------------------------------------------------------------------------------------|
A|--2-2-5~--5---------5~--5-----2-2-5~--5----------5~--5-----------------5~--5-----2-2-5~--5---------5~--5--|
E|------------5-5-3-3-------3-3------------5-5-3-3-------(rest)-5-5-3-3--------3-3-----------5-5-3-3--------|
PM  . .       . . . .       . . . .        . . . .              . . . .        . . . .       . . . .

Bridge Part 1(lead): Repeat 2 times (Play the second time without the bends)
e|---------------------------------------------------------------------------|
B|-------------------------------------------------------------10b12-10b12---|
G|--4-4-4-4-4-4-4-6-6-6-6-6-6-6-7-7-7-7-7-7-7-9-9-9-9-11-11-11---------------|
D|---------------------------------------------------------------------------|
A|--2-2-2-2-2-2-2-4-4-4-4-4-4-4-5-5-5-5-5-5-5-7-7-7-7-9--9--9----------------|
E|---------------------------------------------------------------------------|

Bridge Part 1(rhythm): Repeat 2 times
e|---------------------------------------------------------------------------|
B|---------------------------------------------------------------------------|
G|--4-4-4-4-4-4-4-2-2-2-2-2-2-2----------------------------------------------|
D|--4-4-4-4-4-4-4-2-2-2-2-2-2-2-4-4-4-4-4-4-4-5-5-5-5-5-5-5------------------|
A|--2-2-2-2-2-2-2-0-0-0-0-0-0-0-5-5-5-5-5-5-5-5-5-5-5-5-5-5------------------|
E|------------------------------2-2-2-2-2-2-2-3-3-3-3-3-3-3------------------|

Bridge Part 2(lead): Repeat 1 time (The picking pattern speeds up on the 16th fretted notes at the end)
e|---------------------------------------------------------------------------------------------------------|
B|---------------------------------------------------------------------------------------------------------|
G|--4-4-4-4-4-4-4-6-6-6-6-6-6-6-7-7-9-9-11-11-16-16-15-15-16-16-18-18--------------------------------------|
D|--------------------------------------------------------------------14-14-16-16-16-16-16-16-16-16-16-16~-|
A|--2-2-2-2-2-2-2-4-4-4-4-4-4-4-5-5-7-7-9--9--14-14-13-13-14-14-16-16--------------------------------------|
E|--------------------------------------------------------------------12-12--------------------------------|

Song Structure:

Verse
Pre-Chorus
Chorus
Verse 2
Pre-Chorus
Chorus
Bridge
Chorus
Verse

Legend
************************************

| *   palm mute
| /   slide up
| \   slide down
| h   hammer-on
| p   pull-off
| ~   vibrato
| +   harmonic
| x   Mute note
| b   Bend
| pb  Pre-bend
| br  Bend release
| pbr Pre-bend release
| brb Bend release bend

************************************
Suggest correction
Creating personal tab
Creating personal tab
You can edit any tab online and save it as your Personal.

You can edit, replace or remove any tab part or add personal notes – all changes will be seen only by you.

Personal tabs can be accessed anytime from any device, even offline.
Learn more »
Give kudos to tab author, rate the tab!
1 2 3 4 5
comments
print report bad tab
1 comment total.
0 reply
GuitarMan805 10 Oct 28, 2015 09:42 AM

the song should be tuned to drop d and the chorus is completely wrong along with the interlude and the "verse 2" riff

guest
You may want to rate the tab now too:
select rating
Wanna post a correction for this tab? Suggest correction