Oops, an error
Loading. Please wait.

Fourth Of July bass

2,679 views 1 this week
no commentswrite comment
1 2 3 4 5
1 last vote to show rating
add to favorites
×
Save as Personal and add changes to this tab that will be seen only by you. Learn more ›
×
You can save this tab as Personal to edit and correct it or add notes. All changes will be seen only by you. Learn more »
launch autoscroll
font size
0
reset
guitar tuner
edit
Autoscroll
slow
fast
+/-
esc
set tempo
stop
-------------------------------------------------------------------------------
        Fall Out Boy - Fourth of July - American Beauty/American Psycho
-------------------------------------------------------------------------------
Tabbed by: Alto Fox
I am not alto fox, i'm just putting these on ug
These are the tabs from this video https://www.youtube.com/watch?v=IwCr5xSbRAA
Tuning: Drop-D
 Intro 
G|----------------------| x2
D|--------5--7----------|
A|3---5\7-----7--7------|
D|----------------------|
 Chorus
G|---------------------------------------------------------------------------| x2
D|---------------------------------------------------------------------------|
A|33333333-------------------------12-12-12-12-12-12-12-12-10-10-10-10-------|
D|---------0000022222----5555--7777-----------------------------------2-2-2-2|
 Verse Pt. 1
G|----------------------| x1
D|--------5-7-----------|
A|3---5\7-----7--7------|
D|----------------------|
 Verse Pt. 2
G|---------------------------------------------------------------------------| x1
D|---------------------------------------------------------------------------|
A|33333333--555577777--------------12-12-12-12-12-12-12-12-10-10-10-10-------|
D|-----------------------5555--7777-----------------------------------2-2-2-2|
   Pre-Chorus
G|----------------------| x1
D|--------5-7-----------|
A|3---5\7-----7--7------|
D|----------------------|
  Bridge
G|---------------------------------------------------------------------------| x1
D|---------------------------------------------------------------------------|
A|3---5----------------------3---5-------------------------------------------|
D|--------2--5----2-2-2-2------------2--5----2-2-2-2-------------------------|

===================
Order
_____
Intro x2
Chorus x2
Verse Pt. 1 x1
Verse Pt. 2 x1
Pre-chorus x1
Chorus   x2
Verse Pt. 1 x1
Verse Pt. 2 x1
Pre-chorus x1
Chorus x2
Bridge x1
Chorus x2

====================
    LEGEND
| \  slide down
====================

            
            
Suggest correction
Creating personal tab
Creating personal tab
You can edit any tab online and save it as your Personal.

You can edit, replace or remove any tab part or add personal notes – all changes will be seen only by you.

Personal tabs can be accessed anytime from any device, even offline.
Learn more »
Give kudos to tab author, rate the tab!
1 2 3 4 5
comments
print report bad tab
guest
You may want to rate the tab now too:
select rating
Wanna post a correction for this tab? Suggest correction