Oops, an error
Loading. Please wait.

From Now On We Are Enemies bass

version 1
version 1

Whole song

Interactive

3,647 views 1 this week
1 commentread comment
1 2 3 4 5
1 last vote to show rating
add to favorites
×
Save as Personal and add changes to this tab that will be seen only by you. Learn more ›
×
You can save this tab as Personal to edit and correct it or add notes. All changes will be seen only by you. Learn more »
launch autoscroll
font size
0
reset
guitar tuner
edit
Autoscroll
slow
fast
+/-
esc
set tempo
stop
-------------------------------------------------------------------------------
			     From Now On We Are Enemies- Fall Out Boy
-------------------------------------------------------------------------------

Tabbed By : BassGuitarGuy94
comment for corrections or complements 
*I am almost done with the Lake Effect Kid bass Tab. I will be submitting it soon

Tuning: standard(EADG)
  INTRO
G|---------------------------------------------------------------------------|
D|------------------(10)=means ten, not one and zero-------------------------|
A|--------5555555577777(10~)333333333333320-5555555577777(10~)333333333333---|
E|8\3~-8\3---------------------------------3---------------------------------|

G|---------------------------------------------------------------------------|
D|---------------------------------------------------------------------------|
A|-00000000-*7-7-777-7-7-(10)~9h(10)-3-3-333-3-3-(10)~9h(10)*----------------|
E|----------------------------(* *= repeat 4 times)--------------------------|

G|---------------------------------------------------------------------------|
D|---------------------------------------------------------------------------|
A|-5555555577777(10)~3333333355555555777777775555555533333333-(palm mutes)---|
E|---------------------------------------------------------------------------|

G|---------------------------------------------------------------------------|
D|---------------------------------------------------------------------------|
A|-5555555577777(10)~333333333333320-5555555577777(10)~3-3-3-3-3-3-3-3-------|
E|----------------------------------3----------------------------------------|

G|---------------------------------------------------------------------------|
D|---------------------------------------------------------------------------|
A|-5-5-555-7-77-7(10)~333333333333320-5-5-555-7-77-7(10)~3333333300000000----|
E|-----------------------------------3---------------------------------------|

G|---------------------------------------------------------------------------|
D|---------------------------------------------------------------------------|
A|-3333333300000000-7-7-777-7-7-(10)~9h(10)-3-3-333-3-3-(10)~9h(10)----------|
E|---------------------------------------------------------------------------|

G|---------------------------------------------------------------------------|
D|---------------------------------------------------------------------------|
A|-7-7-777-7-7-(10)~9h(10)-3-3-333-3-3-(10)~9h(10)---------------------------|
E|---------------------------------------------------------------------------|

G|---------------------------------------------------------------------------|
D|---------------------------------------------------------------------------|
A|-5555555577777(10)~3333333355555555777777775555555533333333-(palm mutes)---|
E|---------------------------------------------------------------------------|

G|---------------------------------------------------------------------------|
D|---------------------------------------------------------------------------|
A|-5555555577777(10)~333333333333320-5555555577777(10)~3-3-3-3-3-3-3-3-------|
E|----------------------------------3----------------------------------------|

G|---------------------------------------------------------------------------|
D|---------------------------------------------------------------------------|
A|-5-5-555-7-77-7(10)~333333333333320-5-5-555-7-77-7(10)~3333333300000000----|
E|-----------------------------------3---------------------------------------|

G|---------------------------------------------------------------------------|
D|---------------------------------------------------------------------------|
A|-333333330000000033333333000000003333333300000000--------------------------|
E|---------------------------------------------------------------------------|

G|---------------------------------------------------------------------------|
D|---------------------------------------------------------------------------|
A|-7-7-777-7-7-(10)~9h(10)-3-3-333-3-3-(10)~9h(10)-(repeat x2)---------------|
E|---------------------------------------------------------------------------|

Guitars and bass pause,then

G|---------------------------------------------------------------------------|
D|---------------------------------------------------------------------------|
A|-5555555577777(10)~33333333555555557777777755555555333333333~~~~-----------|
E|---------------------------------------------------------------------------|

G|---------------------------------------------------------------------------|
D|---------------------------------------------------------------------------|
A|-5555555577777(10)~333333333333320-5555555577777(10)~3-3-3-3-3-3-3-3-------|
E|----------------------------------3----------------------------------------|

G|---------------------------------------------------------------------------|
D|---------------------------------------------------------------------------|
A|-5-5-555-7-77-7(10)~333333333333320-5-5-555-7-77-7(10)~3333333300000000----|
E|-----------------------------------3---------------------------------------|
ENDING
G|---------------------------------------------------------------------------|
D|---------------------------------------------------------------------------|
A|-333333330000000033333333000000003333333300000000--------------------------|
E|---------------------------------------------------------------------------|

| /  slide up
| \  slide down
| h  hammer-on
| p  pull-off
| ~  vibrato
| +  harmonic
| x  Mute note
===============================================================================
Suggest correction
Creating personal tab
Creating personal tab
You can edit any tab online and save it as your Personal.

You can edit, replace or remove any tab part or add personal notes – all changes will be seen only by you.

Personal tabs can be accessed anytime from any device, even offline.
Learn more »
Give kudos to tab author, rate the tab!
1 2 3 4 5
comments
print report bad tab
1 comment total.
0 reply
rad/emo/bassist 10 Jan 12, 2010 07:56 AM

not bad, could be better.

guest
You may want to rate the tab now too:
select rating
Wanna post a correction for this tab? Suggest correction