Oops, an error
Loading. Please wait.

Golden bass

version 1
version 1

Whole song

Interactive

2,933 views 6 this week
1 commentread comment
1 2 3 4 5
x 7
add to favorites
×
Save as Personal and add changes to this tab that will be seen only by you. Learn more ›
×
You can save this tab as Personal to edit and correct it or add notes. All changes will be seen only by you. Learn more »
launch autoscroll
font size
0
reset
guitar tuner
edit
Autoscroll
slow
fast
+/-
esc
set tempo
stop
Author
Song: Golden
Artist: Fall Out Boy
Tabbed by: Valerie 
e-mail: iloled@yahoo.com

There's no bass line for this song but I just decided to put one in for fun.  This is my
track on the album.  You can play this any rhythm you want.

Intro
G|----------------|
D|----------------|
A|-4--4-4-4-4-4>>-|
E|----------------|

Verse: "How cruel is the golden rule..."
G|--------------------------------------------------|--------------------------------------------------------|
D|--------------------------------------------------|--------------------------------------------------------|
A|-4--4-4444----------------4--4-4-4-4-4-4-4--------|-4-4444444------------4--4-4-4-4-4-4-4------------------|
E|-----------4--4-4-4-4-4-4------------------4446-8-|-----------4-4444444-------------------1-111111-222222--|

"I knew the lights in the city..."
G|---------------------------------|    |------------------------------|
D|---------------------------------|    |------------------------------|
A|-4--4-4-4-4-4-4-4----------------|    |-7--7-7-7-7-7-7-8-8-8-8-8-8-8-|
E|------------------4--4-4-4-4-4-4-| x3 |------------------------------|

Chorus: "And I saw God cry..."
G|-----------------------------|    |----------------------------------|
D|-----------------------------|    |----------------------------------|
A|----------------------6--6-6-|    |-6--6-6-6-6-6-6-6-4--4-4-4-4-4-4-4|
E|-1--1-1-3--3-3-4--4-4--------| x3 |----------------------------------|

Verse
Chorus

End, kind of sloppy but yeah. Enjoy!

            
            
Suggest correction
Creating personal tab
Creating personal tab
You can edit any tab online and save it as your Personal.

You can edit, replace or remove any tab part or add personal notes – all changes will be seen only by you.

Personal tabs can be accessed anytime from any device, even offline.
Learn more »
comments
print report bad tab
1 comment total.
0 reply
chemoth 10 Feb 17, 2007 11:38 AM

wow creative! lol lv it

guest
You may want to rate the tab now too:
select rating
Wanna post a correction for this tab? Suggest correction