Oops, an error
Loading. Please wait.

Grand Theft Autumn Bass

version 1
version 1

Whole song

34,306 views 9 this week
9 commentsread comments
1 2 3 4 5
x 20
add to favorites
×
Save as Personal and add changes to this tab that will be seen only by you. Learn more ›
×
You can save this tab as Personal to edit and correct it or add notes. All changes will be seen only by you. Learn more »
save as personal
new!
launch autoscroll
font size
0
reset
guitar tuner
Autoscroll
slow
fast
+/-
esc
set tempo
stop
Drop D tuning

[Intro]
G ----------------------------------------------------------------|
D ----------------------------------------------------------------|
A -5-5-5-5-5-5-5-5--5-5-5-5-5-5-5-5--2-2-2-2-2-2-2-2--0-0-0-0-0-x-|
D ----------------------------------------------------------------|

[Verse]
G -------------------------------|-----------------------------|
D -------------------------------|-----------------------------|
A -5-5---------------------------|-5-5-------------------------|
D -----4-5-5--4-2-2--4-5-5-5-5-7-|-----4-5-5--4-2-2--4-5-5-5-5-|

Pre Chorus 1
G -------------------------------------------------------------------|-------------------------------|
D -------------------------------------------------------------------|-------------------------------|
A -5-5-5-5-5-5-5-5--7-7-7-7-7-7-7-7----------------------------------|-------------------------------|
D ----------------------------------0-0-0-0-0-0-0-0--5-5-5-5-5-5-5-5-|-5-5-5-5--7-7-7-7--0-0-0-0-0-x-|

[Chorus]
G --------------------------------------------------------------------------------------|
D --------------------------------------------------------------------------------------|
A -2-2----------------------------------------------------------------------------------|
D -----5-5--0-0--4-4--5-5--7-7--0-0--4-4--5-5--7-7-0-0-0-0-0-0-0-0-2-2-2-2-2-2-2-2/4h5--|

[Intro]
[Verse]

G -------------------------------------------------------------------|-------------------------------|
D -------------------------------------------------------------------|-------------------------------|
A -5-5-5-5-5-5-5-5--7-7-7-7-7-7-7-7----------------------------------|-------------------------------|
D ----------------------------------0-0-0-0-0-0-0-0--5-5-5-5-5-5-5-5-|-5-5-5-5--7-7-7-7--0-0-0-0-5-5-|

[Chorus]

Then
G --------|
D --------|
A -5~--5x-|
D --------|

Pre Bridge
G -------|
D -------|
A -9h10\-|
D -------|

Bridge - 4x
G -------------------------------------------------------------------|
D ---------7-5---5----------7-5---5----------------------------------|
A -2-2-2-2-----7----0-0-0-0-----7------------------------------------|
D -----------------------------------0-0-0-0-0-0-0-0-5-5-5-5-5-5-5-5-|

Then
G ----
D ----
A -5x-
D ----

Post Bridge
G --------------------------------------------------------------------|
D --------------------------------------------------------------------|
A -5-5-5-5--7-7-7-7---------------------------------------------------|
D ------------------0-0-0-0--5-5-5-5--0-0-0-0-0-0-0-0-2-2-2-2-2-2-2-2-|

Last Chorus
G ------------------------------------------------------------------------------------------------|
D ------------------------------------------------------------------------------------------------|
A -5-5-------------------------5-5-----5-5-5-5------------------------------------------------5-x-|
D -----5-5--0-0--4-4--5-5--7-7-----4-4---------7-7-7-7--0-0-0-0-0-0-0-0-2-2-2-2-2-2-2-2/4h5-------|



************************************

| x  Dead note
| h  Hammer-on
| /  Slide up
| \  Slide down
| ~  Vibrato   

************************************
Suggest correction
comments
print report bad tab
9 comments total. Showing first comments.
0 reply
*Jordie1* 10 Jul 11, 2006 05:02 PM

it's ok. I think the chorus is wrong

-1 reply
punk_isntemo12 40 Jan 20, 2007 04:29 PM

could someone please tab this in standard tuning???????? good job BTW. the chorus is right

0 reply
danielitri-182 10 Feb 04, 2007 07:48 PM

why would u want it tabbed in standard?

its supposed to be played in drop d

good tab, i gave it a 4

guest
You may want to rate the tab now too:
select rating
Wanna post a correction for this tab? Suggest correction