Oops, an error
Loading. Please wait.

Grand Theft Autumn bass

version 2
version 2

Whole song

4,004 views 1 this week
no commentswrite comment
1 2 3 4 5
3 more votes to show rating
add to favorites
×
Save as Personal and add changes to this tab that will be seen only by you. Learn more ›
×
You can save this tab as Personal to edit and correct it or add notes. All changes will be seen only by you. Learn more »
launch autoscroll
font size
0
reset
guitar tuner
edit
Autoscroll
slow
fast
+/-
esc
set tempo
stop
this prolly isnt exactly how they play it but i like it.

 intro:

        G|-----------------------------------------|
        D|-----------------------------------------|
        A|-----------------------------------------|
        D|-000000000000-77777777-55555-------------|

 verse:

        G|-----------------------------------------|
        D|-----------------------------------------|
        A|-----------------------------------------|
        D|-00-455-422-455-557-00-455-422-455-57----|

 verse p.2 or somthing

        G|-----------------------------------------|
        D|-----------------------------------------|
        A|-----------------------------------------|
        D|-00000000-7777777-00000000-55555555------| or can end the 5s with just goin 
so you play wiht his voice more, if you know what i mean.

        G|-------------------------|
        D|-------------------------|
        A|---------------------2\--|just up and down the neck all the way
        D|-55-55-77-77-00-00-0-----|

 Chorus:

        G|-----------------------------------------|
        D|-----------------------------------------|
        A|-22--------------------------------------|
        D|----55-00-44-55-77-00-44-55-77-----------|

        G|-----------------------------------------|
        D|-----------------------------------------|
        A|-----------------------------------------|
        D|-000000000000-22222222222-5--------------|

 Bridge:

        G|-----------------------------------------|
        D|-----------------------------------------|
        A|-----------------------------------------|
        D|-0-0-------------------------------------|  mute the second 0 right up by the 
so its low but like muffled

i have 2 versions of this part of the bridge this is the main one or you can start with 
finger 1 or 2 frets highter depending on how you want it to sound, but use the same pattern

       G|------------------------------------------|
       D|-------9-7---7------7-5---5---------------|
       A|-0000------9---0000-----7-----------------|
       D|------------------------------------------|

       G|------------------------------------------|
       D|-----------7-5--5--7-5---5----------------|
       A|-00000000------7-------7------------------|
       D|------------------------------------------|


       G|------------------------------------------|
       D|-------7-5---5------9-7---7---------------|
       A|-0000------7---0000-----9-----------------|
       D|------------------------------------------|


       G|------------------------------------------|
       D|-----------9-7---7--9-7---7---------------|
       A|-00000000------9--------9-----------------|
       D|------------------------------------------| do all of that like 2 or 3 times

outro:
       G|------------------------------------------|
       D|------------------------------------------|
       A|------------------------------------------|
       D|--555555-777777--555555-33333-5555-7777---|


       then do that once then do the chorus to finish it up

            
            
Suggest correction
Creating personal tab
Creating personal tab
You can edit any tab online and save it as your Personal.

You can edit, replace or remove any tab part or add personal notes – all changes will be seen only by you.

Personal tabs can be accessed anytime from any device, even offline.
Learn more »
Give kudos to tab author, rate the tab!
1 2 3 4 5
comments
print report bad tab
guest
You may want to rate the tab now too:
select rating
Wanna post a correction for this tab? Suggest correction