Oops, an error
Loading. Please wait.

Hand Of God Bass Tab

version 1
version 1

Whole song

Interactive

16 views 1 this week
no commentswrite comment
1 2 3 4 5
3 more votes to show rating
add to favorites
launch autoscroll
font size
0
reset
guitar tuner
Autoscroll
slow
fast
+/-
esc
set tempo
stop
Help us to improve Ultimate-Guitar.com Take our survey!
×
Author
Difficulty
[Intro]

G|---------------------------------------------------------------------------|
D|---------------------------------------------------------------------------|
A|-/4-4-4-4-4-4-4-4--4-4-4-4-4-----------------------------------------------|
E|------------------------------4-4-4--5-5-5-5-5-5--0-0-0-0-0-0--0-0-0-0-----|

[Pre-Verse]             

G|---------------------------------------------------------------------------|
D|---------------------------------------------------------------------------|
A|-4-4-4-4-4-----4-4-4-4-4-----4-----4---------------------------------------|
E|------------4-------------4-----4-----4--5-5-5-5-5-5--0-0-0-0-0-0--0-0-0-0-|

[First Verse]
             
G|---------------------------------------------------------------------------|
D|---------------------------------------------------------------------------|
A|-4--4-4-4--4--4-4-4-4-4----------------------------------------------------|
E|-------------------------4-4--5--5-5-5--0~--4-4--5--5-5-5--0~--4-4--7-7-7--|

G|---------------------------------------------------------------------------|
D|---------------------------------------------------------------------------|
A|---------------------------------------------------------------------------|
E|-5~------------------------------------------------------------------------|

[Pre-Chorus]
 
G|---------------------------------------------------------------------------|
D|---------------------------------------------------------------------------|
A|-------9--7-----------------9--7-----------------9--7----------4-4---------|
E|-2--5--------7--0--1--2--5--------7--0--1--2--5--------7--0--1------7-7--5~|

[Chorus]

G|---------------------------------------------------------------------------|
D|---------------------------------------------------------------------------|
A|----------------------------5--4--------------------------4-4--------------|
E|-0-0-0-0--4-4-4-4--5-5-5-x--------7--4--0-0-0-0--4-4-4-4-------7-7--5-5-5--|

G|---------------------------------------------------------------------------|
D|---------------------------------------------------------------------------|
A|---------------------------------------------------------------------------|
E|-5-5-----------------------------------------------------------------------|

[Pre-Verse/Post-Chorus]

G|---------------------------------------------------------------------------|
D|---------------------------------------------------------------------------|
A|-4-4-4-4-4-4-4--4-4-4-4-----4-----4----------------------------------------|
E|-------------------------4-----4-----4--5-5-5-5-5-5--0-0-0-0-0-0-0-0--4--5-|

G|---------------------------------------------------------------------------|
D|---------------------------------------------------------------------------|
A|----4-4-4-4-4-4-4--4-4-4-4-----4-----4-------------------------------------|
E|-7--------------------------4-----4-----4--5-5-5-5-5-5--0-0-0-0-0-0-0-0--4-|

G|---------------------------------------------------------------------------|
D|---------------------------------------------------------------------------|
A|---------------------------------------------------------------------------|
E|-5--7----------------------------------------------------------------------|

[Second Verse]
             
G|---------------------------------------------------------------------------|
D|---------------------------------------------------------------------------|
A|-4--4-4-4--4--4-4-4-4-4----------------------------------------------------|
E|-------------------------4-4--5--5-5-5--0~--4-4--5--5-5-5--0~--4-4--7-7-7--|

G|---------------------------------------------------------------------------|
D|---------------------------------------------------------------------------|
A|---------------------------------------------------------------------------|
E|-5~------------------------------------------------------------------------|

[Pre-Chorus]
 
G|---------------------------------------------------------------------------|
D|---------------------------------------------------------------------------|
A|-------9--7-----------------9--7-----------------9--7----------4-4---------|
E|-2--5--------7--0--1--2--5--------7--0--1--2--5--------7--0--1------7-7--5~|


[Chorus] 

G|---------------------------------------------------------------------------|
D|---------------------------------------------------------------------------|
A|---------------------------------------------------------------------------|
E|-0-0-0-0--4-4-4-4--5-5-5-x--9--7--0-0-0-0--4-4-4-4--5-5-5--5-5-5--5-5--7---|

G|---------------------------------------------------------------------------|
D|---------------------------------------------------------------------------|
A|----------------------------------4-4--------------------4-4---------------|
E|-0-0-0-0--4-4-4-4--5-5-x--5--7-7-------0-0-0-0--4-4-4-4-------7-7--5-x-----|

[Bridge]

G|---------------------------------------------------------------------------|
D|---------------------------------------------------------------------------|
A|-/4-4-4-4------------------------------------2--4-4-4-4--------------------|
E|-----------4-4-4-4--2p0h2--0h2--2p0h2--4--6--------------4-4-4-4--2p0h2--0h|

G|---------------------------------------------------------------------------|
D|---------------------------------------------------------------------------|
A|-----------------2--4-4-4-4------------------------------------2--4-4-4-4--|
E|-2--2p0h2--4--6--------------4-4-4-4--2p0h2--0h2--2p0h2--4--6--------------|

G|---------------------------------------------------------------------------|
D|---------------------------------------------------------------------------|
A|---------------------------------------------------------------------------|
E|-4-x--2-2-2-2-2-2-2-2--0~--5-5-5-5-5-5-5-x---------------------------------|

[Chorus/Outro]

G|---------------------------------------------------------------------------|
D|---------------------------------------------------------------------------|
A|------------------------------5--4--7-7-7--------------------4-4-----------|
E|-0-0-0-0--4-4-4-4--5-5-5-5-5---------------0-0-0-0--4-4-4-4-------7-7--5---|

G|---------------------------------------------------------------------------|
D|---------------------------------------------------------------------------|
A|---------------------------------------------------------------------------|
E|-5-5--5--5-5-5-5-5-5-5--5--5-5-5--5--5-5-5-5-5-5-5~------------------------|

************************************

| x   Dead note
| h   Hammer-on
| p   Pull-off
| /   Slide up
| ~   Vibrato

************************************
Suggest correction
Give kudos to tab author, rate the tab!
1 2 3 4 5
comments
print report bad tab
guest
You may want to rate the tab now too:
select rating
Wanna post a correction for this tab? Suggest correction