Oops, an error
Loading. Please wait.

Hum Hallelujah Tab

version 5
version 5

Whole song

Interactive

330 views 1 this week
no commentswrite comment
1 2 3 4 5
please rate
add to favorites
launch autoscroll
font size
0
reset
how to read this tab
guitar tuner
Autoscroll
slow
fast
+/-
esc
set tempo
stop
Help us to improve Ultimate-Guitar.com Take our survey!
×
Author
Difficulty
Tuning
intermediate
D A D G B E
Symbols:
*=Palm Mute
()=Harmonic
~=Let Ring
x=Strum Muted Strings

Intro Gtr1
e)-----------------------------------------------------|
B)--775555775555---------------------------------------|
G)--7777777777777777-----------------------------------|
D)-----------------------------------------------------|
A)-----------------------------------------------------|
D)-----------------------------------------------------|x8

Intro Gtr2(Listen for Timing on Entrance)
e)-----------------------------------------------------|
B)-----------------------------------------------------|
G)-----------------------------------------------------|
D)-0000-0000-0000-0000-(5)(5)(5)-----------------------|
A)-0000-0000-0000-0000-(5)(5)(5)-----------------------|
D)-0000-0000-0000-0000-(5)(5)(5)-----------------------|
   ***  ***  ***  ***

Verse
e)-------------------------------------------------------|
B)-------------------------------------------------------|
G)-------------------------------------------------------|
D)-0000~-0000~-9999~-5555~-0000~-0000~-9999~-555555555555|
A)-0000~-0000~-9999~-5555~-0000~-0000~-9999~-555555555555|
D)-0000~-0000~-9999~-5555~-0000~-0000~-9999~-555555555555|
   ***   ***   ***   ***   ***   ***   ***   ***

Pre-Chorus 
e)-------------------------------------------------------|
B)-------------------------------------------------------|
G)-------------------------------------------------------|
D)-999-999-777-777-000-000-555-555-----------------------|
A)-999-999-777-777-000-000-555-555-----------------------|
D)-999-999-777-777-000-000-555-555-----------------------|
   **  **  **  **  **  **  **  **

End With
e)-----------------------------------------------------|
B)-----------------------------------------------------|
G)-----------------------------------------------------|
D)-5555555555555555x-----------------------------------|
A)-5555555555555555x-----------------------------------|
D)-5555555555555555x-----------------------------------|

Chorus
e)-----------------------------------------------------|
B)-----------------------------------------------------|
G)-----------------------------------------------------|
D)-xxxx000~x-5555~x-0000~x-99999999-55555555-----------|
A)-xxxx000~x-5555~x-0000~x-99999999-55555555-----------|
D)-xxxx000~x-5555~x-0000~x-99999999-55555555-----------|

e)-----------------------------------------------------|
B)-----------------------------------------------------|
G)-----------------------------------------------------|
D)-00-xxxxxxxxxx-55-xxxxxxxxxx-00-xxxxxxxxxx-99995555x-|
A)-00-xxxxxxxxxx-55-xxxxxxxxxx-00-xxxxxxxxxx-99995555x-|
D)-00-xxxxxxxxxx-55-xxxxxxxxxx-00-xxxxxxxxxx-99995555x-|
     (5555555555)  (5555555555)  (5555555555) 

Post Chorus
e)-----------------------------------------------------|
B)--775555775555---------------------------------------|
G)--7777777777777777-----------------------------------|
D)-----------------------------------------------------|
A)-----------------------------------------------------|
D)-----------------------------------------------------|x1

Verse
e)-------------------------------------------------------|
B)-------------------------------------------------------|
G)-------------------------------------------------------|
D)-0000~-0000~-9999~-5555~-4444~-5555~-9999~-555555555555|
A)-0000~-0000~-9999~-5555~-4444~-5555~-9999~-555555555555|
D)-0000~-0000~-9999~-5555~-4444~-5555~-9999~-555555555555|
   ***   ***   ***   ***   ***   ***   ***   ***

Pre-Chorus
Pre-Chorus 
e)-------------------------------------------------------|
B)-------------------------------------------------------|
G)-------------------------------------------------------|
D)-999-999-777-777-000-000-555-555-----------------------|
A)-999-999-777-777-000-000-555-555-----------------------|
D)-999-999-777-777-000-000-555-555-----------------------|
   **  **  **  **  **  **  **  **

End With
e)-----------------------------------------------------|
B)-----------------------------------------------------|
G)-----------------------------------------------------|
D)-55555555555555550-----------------------------------|
A)-55555555555555550-----------------------------------|
D)-55555555555555550-----------------------------------|
                   *

Chorus
e)-----------------------------------------------------|
B)-----------------------------------------------------|
G)-----------------------------------------------------|
D)-xxxx000~x-5555~x-0000~x-99999999-55555555-----------|
A)-xxxx000~x-5555~x-0000~x-99999999-55555555-----------|
D)-xxxx000~x-5555~x-0000~x-99999999-55555555-----------|

e)------------------------------------------------------|
B)------------------------------------------------------|
G)------------------------------------------------------|
D)-00-xxxxxxxxxx-55-xxxxxxxxxx-00-xxxxxxxxxx-999955550~-|
A)-00-xxxxxxxxxx-55-xxxxxxxxxx-00-xxxxxxxxxx-999955550~-|
D)-00-xxxxxxxxxx-55-xxxxxxxxxx-00-xxxxxxxxxx-999955550~-|
     (5555555555)  (5555555555)  (5555555555) 

Bridge
e)-----------------------------------------------------|
B)-----------------------------------------------------|
G)-----------------------------------------------------|
D)-0000000000000000-9999777744445555-------------------|
A)-0000000000000000-9999777744445555-------------------|
D)-0000000000000000-9999777744445555-------------------|x2
   **************** ****************
Bridge(Cont)
e)-----------------------------------------------------|
B)-----------------------------------------------------|
G)-----------------------------------------------------|
D)-0~-05~-50~-09---xxxx--------------------------------|
A)-0~-05~-50~-09---xxxx--------------------------------|
D)-0~-05~-50~-09---xxxx--------------------------------|
      *   *   *   (9999)

Chorus
e)-------------------------------------------------------------|
B)-------------------------------------------------------------|
G)-------------------------------------------------------------|
D)-0-0-0-0-0-0-0-0-5-5-5-5-5-5-5-5-0-0-0-0-0-0-0-0-99995555----|
A)-0-0-0-0-0-0-0-0-5-5-5-5-5-5-5-5-0-0-0-0-0-0-0-0-99995555----|
D)-0-0-0-0-0-0-0-0-5-5-5-5-5-5-5-5-0-0-0-0-0-0-0-0-99995555----|

e)---------------------------------------------------------|
B)---------------------------------------------------------|
G)---------------------------------------------------------|
D)-00-xxxxxxxxxx-55-xxxxxxxxxx-00-xxxxxxxxxx-55-xxxxxxxxxx-|
A)-00-xxxxxxxxxx-55-xxxxxxxxxx-00-xxxxxxxxxx-55-xxxxxxxxxx-|
D)-00-xxxxxxxxxx-55-xxxxxxxxxx-00-xxxxxxxxxx-55-xxxxxxxxxx-|
     (5555555555)  (5555555555)  (5555555555)  (5555555555)
e)------------------------------------------------------|
B)------------------------------------------------------|
G)------------------------------------------------------|
D)-00-xxxxxxxxxx-55-xxxxxxxxxx-00-xxxxxxxxxx-999955550~-|
A)-00-xxxxxxxxxx-55-xxxxxxxxxx-00-xxxxxxxxxx-999955550~-|
D)-00-xxxxxxxxxx-55-xxxxxxxxxx-00-xxxxxxxxxx-999955550~-|
     (5555555555)  (5555555555)  (5555555555) 
Suggest correction
What's this?
You can suggest a correction to this tab. Community and Mods will review your correction and vote to approve or reject it.
comments
We did not receive enough feedback on this tab! Please rate:
print report bad tab
1 2 3 4 5
guest
You may want to rate the tab now too:
select rating
Please do not post tabs as comments. Select "correction" instead!